Oops, an error
Loading. Please wait.

Roses tab

version 3
version 3

Whole song

Interactive

18,532 views 6 this week
5 commentsread comments
1 2 3 4 5
x 6
add to favorites
×
Save as Personal and add changes to this tab that will be seen only by you. Learn more ›
×
You can save this tab as Personal to edit and correct it or add notes. All changes will be seen only by you. Learn more »
launch autoscroll
font size
0
reset
how to read this tab
guitar tuner
edit
Autoscroll
slow
fast
+/-
esc
set tempo
stop
Author
Difficulty
Meg and Dia - Roses

Tabbed by Darik K.

e|--------------------7-7-7-5-5-5-2-2-2-------------------2-2-2-2\4-4-4-4----|
B|--5-5-5-4-4-4-0-0-0-------------------5-5-5-4-4-4-0-0-0--------------------|
G|---------------------------------------------------------------------------|
D|---------------------------------------------------------------------------|
A|---------------------------------------------------------------------------|
E|---------------------------------------------------------------------------|

| \  slide down

You should be adding vibratos here and there where Kenji plays it.

Chords: (the x's mean that the note is muted or not played)

   C#m   A(1)  A    Am   B    E    F#m
e|--4----5-----0----0----x----0----2-----------------------------------------------|
B|--5----5-----2----1----4----0----2-----------------------------------------------|
G|--6----6-----2----2----4----1----2-----------------------------------------------|
D|--6----7-----2----2----4----2----4-----------------------------------------------|
A|--4----7-----0----0----2----2----4-----------------------------------------------|
E|--x----5-----x----x----x----0----2-----------------------------------------------|

Notes:  Remember, you don't have to play these chords at these octaves.  you could play 
at higher octaves as well.

Verse 1:
(note when palm-muting, play power chords.  Meaning the Root and fifth)


C#m
Turn around there's those eyes again.

A
Turn around fake indifference and I.


     C#m     A(1)
e|----4-------5--------------------------------------------------------------|
B|----5-------5--------------------------------------------------------------|
G|----6-------6--------------------------------------------------------------|
D|----6-------7--------------------------------------------------------------|
A|----4-------7--------------------------------------------------------------|
E|----x-------5--------------------------------------------------------------|
(Kenji comes in with the second guitar in this part and plays this.  It's just the 
i didn't show the pattern.)


C#m                                     A
Watch their cold, dark silhouettes disappear.

C#m
A hundred bodies fill this room.

A
And all their faces overdone.

C#m                         A
Pain is foreign, foreign to us.


Pre-chorus:
C#m     B    A
I don't even know you.

C#m       B    A
You won't even know I'm gone.

F#                     A       Am
Was it something I did wrong?

Chorus:
E      B     A    Am
Roses, roses cold.

E      B     A        Am
Roses, roses sold out.


Verse 2:
C#m
Turn around reds and whites again.

A
I'd sell my kicks for one more low tar.

C#m                               A
Fevers hand in hand with shoelace bracelets.

C#m
Why are some girls so naive?

A
He didn't unbutton your blouse to see.

C#m
A better view of your heart.

                             A
Oh yeah, can't blame you for trying.

Pre-chorus:
C#m     B    A
I don't even know you.

C#m       B    A
You won't even know I'm gone.

F#                     A       Am
Was it something I did wrong?

Chorus:
E      B     A    Am
Roses, roses cold.

E      B     A        Am
Roses, roses sold out.

E      B     A    Am
Roses, roses cold.

E      B     A        Am
Roses, roses sold out.

Bridge:
C#m
Sing it soft.

A
Make it slow.

B
Apples parachute

B
the boys back down.

C#m
Fill it up.

A
Overflow.

B               B
A new, improved modern way to feel.

End:
C#m     B    A
I don't even know you.

C#m       B    A
You won't even know I'm gone.

F#                     A       Am
Was it something I did wrong?

F#                     A       Am
Was it something I did wrong?

F#                     A
Was it something I did wrong?


===============================================================
I'm more than positive that this is correct.  I didn't put the little adlibs in.  I'll 
that when i have more time.  Feel free to contact me if you have any questions.  If the 
aren't placed on top of the lyrics correctly then just play it where it's supposed to be =).
Suggest correction
Creating personal tab
Creating personal tab
You can edit any tab online and save it as your Personal.

You can edit, replace or remove any tab part or add personal notes – all changes will be seen only by you.

Personal tabs can be accessed anytime from any device, even offline.
Learn more »
comments
print report bad tab
5 comments total. Showing first comments.
0 reply
clareclare 31 Jul 11, 2008 02:27 AM

Excellent tab dude, you did a great job.

0 reply
Rose_Monster 145 Jul 14, 2008 09:14 AM

nice tab! Thank you

+2 reply
Astorga 10 Aug 02, 2008 03:17 PM

in the intro it you have:

e|---------------------7-7-7-5-5-5-2-2-
B|---5-5-5-4-4-4-0-0-0-

it should be....V

e|-------------------7-7-7-5-5-5-4-4-4-
B|-5-5-5-4-4-4-0-0-0-

other than that its awesome.

guest
You may want to rate the tab now too:
select rating
Wanna post a correction for this tab? Suggest correction