Oops, an error
Loading. Please wait.

Strawberry Waltz chords

10,314 views 6 this week
1 commentread comment
1 2 3 4 5
x 3
add to favorites
×
Save as Personal and add changes to this tab that will be seen only by you. Learn more ›
×
You can save this tab as Personal to edit and correct it or add notes. All changes will be seen only by you. Learn more »
launch autoscroll
font size
0
reset
transpose
0
reset
simplify chords
display chords
guitar tuner
edit
Autoscroll
slow
fast
+/-
esc
set tempo
stop
Strumming
There is no strumming pattern for this song yet. and get +5 IQ
Meg And Dia
Strawberry Waltz
Our Home Is Gone
2004
Submitted by: paramore_fans@yahoo.com

Key: D

Tuning: Standard EADGBe

Chords used:
D -    xx0232
D9 -   xx0230
DM7 -  xx0222
D7 -   xx0212
Dsus - xx0233
Em -   022000
Bm -   x24432
A -    x02220
G -    320033
Gm -   355333
Bb -   x13331


Intro: pm means palm mute
    D      D9            D7          Em     A
e|-2----|-0----|-2--2h3p2--5--3-2-|-2--0-|-2--0-|
B|-3----|-3----|-1----------------|-0--0-|-2--2-|
G|-2-pm-|-2-pm-|-2----------------|-0--0-|-2--2-|
D|-0----|-0----|-0----------------|-2--2-|-2--2-|
A|------|------|------------------|-2--2-|-0--0-|
E|------|------|------------------|-0--0-|------|

   D  Dsus D
e|-2-|-3-|-2--2-|
B|-3-|-3-|-3--3-|
G|-2-|-2-|-2--2-|
D|-0-|-0-|-0--0-|
A|---|---|------|
E|---|---|------|


Verse 1:
     D             D9
Disreguard what we know
          D7          D7
Well your voice is so low
        G
Will I stay Will I
Bb      D
go this evening
        D            D9
See the light on the rail
        D7
Reflect red off the
D7             G
tail lights In front
     Bb      D
of us Slowly leading


Chorus:
A                  D
Heed my warning my darling
Bm            A        G
Don't let the twilight drown
A                  D
Feel the shoreline thriving
      Bm          A
Turn around Turn around
      G
Turn around


Verse 2:
        D           D9
Well we pull of the road
         D7            D7
Sinking slow, sinking slow
        G        Bb         D
And the gravel recedes into dust
        D          D9
And the unfaithful sun
        D7        D7
Went to burn all alone
        G             Bb
Just to love just for love
         D
Just for plain simple love


(Repeat Chorus)


Bridge:
Bm   G    D  Em   A
Oh oh (4x)


(Repeat Chorus)

            
            
Suggest correction
Creating personal tab
Creating personal tab
You can edit any tab online and save it as your Personal.

You can edit, replace or remove any tab part or add personal notes – all changes will be seen only by you.

Personal tabs can be accessed anytime from any device, even offline.
Learn more »
Give kudos to tab author, rate the tab!
1 2 3 4 5
comments
print report bad tab
1 comment total.
0 reply
KaylaJay 10 Dec 21, 2009 10:50 PM

After this->
e|-2----|-0----|-2--2h3p2--5--3-2-|
B|-3----|-3----|-1----------------|
G|-2-pm-|-2-pm-|-2----------------|
D|-0----|-0----|-0----------------|
A|------|------|------------------|
E|------|------|------------------|

They go this instead->
e|--5-5-5--3-3-3--2-2-2--0-0-0----|
B|--3-3-3--3-3-3--3-3-3--3-3-3----|
G|--2-2-2--2-2-2--2-2-2--2-2-2----|
D|--------------------------------|
A|--------------------------------|
E|--------------------------------|

and the rest is right on :) Good Job :)

guest
You may want to rate the tab now too:
select rating
Wanna post a correction for this tab? Suggest correction