Oops, an error
Loading. Please wait.

99 Ways To Die Bass Tab

version 1
version 1

Whole song

4,213 views 3 this week
no commentswrite comment
1 2 3 4 5
excellent!
x 3
add to favorites
launch autoscroll
font size
0
reset
guitar tuner
Autoscroll
slow
fast
+/-
esc
set tempo
stop
Help us to improve Ultimate-Guitar.com Take our survey!
×
99 ways to die
Megadeth - Hidden Treasures
Trancribed by Pritsch
Tuning : G D A E 
 
 intro                            verse                                
|--------------------------------|--------------------------------|
|--------------------------------|.-------------------------------|
|-2-1---2-1---2-1---2-1----------|.----------7--------------------|
|--------------------------3-3---|---0-0-0-0---0-0-0-0-0-0-0-0-0--|
                               
                     4x bridge            2x
|----------------------|--------------------|---------------------|
|---------------------.|.---------0---0----.|-----------0---0-----|
|---------7-------7-5-.|.-----------5---2--.|---------------------|
|-0-0-0-0-----3-4------|--0-2-3-5-----------|---0-2-3-5---5---5---|
                                  
                               chorus
|-----------------------------|-----------------------------------|
|------------------4---4-5----|.----------------------------------|
|--2---3-2-6-3-7-6---7--------|.---------7---2-1-1-1-1-1----------|
|----5------------------------|--0-0-0-0---0-------------0-1-0-0--|

                               2x
|--------------------------------|--------------------------------|
|-------------------------------.|--------------------------------|
|------7---2-1-2-1--------------.|------0-------------------------|
|--0-0-------------1-------------|--2-0---3-2-1-------------------|

 verse                                                         4x
|--------------------------------|--------------------------------|
|.-------------------------------|-------------------------------.|
|.----------7--------------------|---------7-------7-5-----------.|
|---0-0-0-0---0-0-0-0-0-0-0-0-0--|-0-0-0-0-----3-4----------------|
                               
 bridge        2x
|-----------------|-----------------|-----------------------------|
|.-------0---0---.|---------0---0---|-------------------4---4-5---|
|.---------5---2-.|-----------------|---2---3-2-6-3-7-6---7-------|
|-0-2-3-5---------|-0-2-3-5---5---5-|-----5-----------------------|
                                  
 chorus                                           4x
|---------------------------------|------------------|------------|
|.--------------------------------|-----------------.|------------|
|.--------7---2-1-1-1-1-1---------|----7---2-1-2-1--.|----0-------|
|-0-0-0-0---0-------------0-1-0-0-|0-0-------------1-|2-0---3-2-1-|

 pré solo                         solo                          4x 
|--------------------------------|--------------------------------|
|--------------------------------|.------------------------------.|
|-----0--------------------------|.----------------------0-1-0---.|
|-2-0---3-2-1-2-0-2-3-0-2-3-2-1-2|-2-2-2-2-2-2-2-2-2-2-2-------3--|

                               3x 
|--------------------------------|--------------------------------|
|.------------------------------.|--------------------------------|
|.------------------------------.|-0-0-0-0-0-0-0-0-1-1-1-1-0------|
|--3-3-3-3-3-3-3-3-3-3-3-0-1-2---|---------------------------2-1--|

 
|--------------------------------|--------------------------------|
|--------------------------------|--------------------------------|
|--------------------------------|--------------------------------|
|-------0-0-0--------0-0-0-------|------0-0-0-------0-0-0---------|

                                             2x
|--------------------------------|-------------|------------------|
|--------------------------------|.-----------.|------------------|
|--------------------------------|.-----------.|------------------|
|--3-4-3-2----0-0-0-----0-0-0----|--3-4-3-2-0--|-----0------0-----|

verse                                                         4x
|--------------------------------|--------------------------------|
|.-------------------------------|-------------------------------.|
|.-----------7-------------------|---------7-------7-5-----------.|
|----0-0-0-0---0-0-0-0-0-0-0-0-0-|-0-0-0-0-----3-4----------------|

bridge        2x
|-----------------|----------------|------------------------------|
|.-------0---0---.|---------0---0--|------------------4---4-5-----|
|.---------5---2-.|----------------|--2---3-2-6-3-7-6---7---------|
|-0-2-3-5---------|-0-2-3-5---5---5|----5-------------------------|
 
             chorus                                            4x
|-----------|---------------------------------|------------------|
|-7-5-7-8-9-|.--------------------------------|-----------------.|
|-----------|.--------7---2-1-1-1-1-1---------|----7---2-1-2-1--.|
|-----------|-0-0-0-0---0-------------0-1-0-0-|0-0-------------1-|
                        3x
|-------------------------|---------------------------------|
|.-----------------------.|---------------------------------|
|.---------7---2-1-2-1---.|---------7---2-1-2-1-2-1-2-1-2---|
|--0-0-0-0-------------1--|-0-0-0-0-----------------------0-|


Suggest correction
Give kudos to tab author, rate the tab!
1 2 3 4 5
comments
print report bad tab
guest
You may want to rate the tab now too:
select rating
Wanna post a correction for this tab? Suggest correction