Oops, an error
Loading. Please wait.

A Secret Place Bass Tab

version 2
version 2

Whole song

Interactive

219 views 1 this week
no commentswrite comment
1 2 3 4 5
please rate
add to favorites
launch autoscroll
font size
0
reset
guitar tuner
Autoscroll
slow
fast
+/-
esc
set tempo
stop
Help us to improve Ultimate-Guitar.com Take our survey!
×
Author
Difficulty
Tuning
intermediate
D A D G B E
A Secret Place
BASS TAB TUNE D

INTRO:
F|------------------------------|
C|-------------------------0-0--|
G|--0-0-0-0/12-0-0---3-3-3------|
D|------------------------------|

F|------------------------------------------------------------------|
C|------------------------------------------12-12-12-12-12-12-12-12-|
G|------------------------------------------------------------------|
D|--5-3-1-0-0-0-0-0-0-0-0-0-0-0-0-0-0-0-0-0/------------------------|

VERSE:
F|------------------------------------------------|-----------|
C|------------------------------------------------|-------0-0-|
G|-0-0-0-0-0-0-0-0-0-0-0-0-0-0-0-0-0-0-0-0-0-0-0-0|-3-3-3-----|
D|------------------------------------------------|-----------|

PRE-CHROUS:
F|------------------------------------------------------|
C|------------------------------------------------------|
G|--------3---------------------------------------------|
D|--5--3-----0-0-0-0-0-0-0-0-0-0-0-0-0-0-0-0-0-0-2-3-5--|

CHROUS:
F|--------------------------------------------------------
C|--------------------------------------------------------
G|-0-0-0-0-0-0-0-0-4-5-5-5-5-5-5-5-5-4-5-6-6-5--0-0-0-0-0-
D|----------------------------------------2---2-----------

--------------------------------------------|
--------------------------------------------|X2
-0-0-0-0-0-4-5-5-5-5-5-5-4-5-6-5-6-7--------|
-------------------------------------2-3-4--|

VERSE:
F|------------------------------------------------|-----------|
C|------------------------------------------------|-------0-0-|
G|-0-0-0-0-0-0-0-0-0-0-0-0-0-0-0-0-0-0-0-0-0-0-0-0|-3-3-3-----|
D|------------------------------------------------|-----------|

Pre-Chorus2:
F|---------------------------------------------------------------|
C|--------3------------------------------------3-----------------|
G|0---5-----3-1-0----------------------0---5-----3-1-0-----------|
D|--3-------------3-1--0-0-0-0-0-0-0-----3-------------3---1-0-0-|

SOLO:
F|---------------------------|   -----|
C|---------------------------|X14-----|
G|-----------------3-3-3-5-5-|   -/12-|
D|-0—0-0-0-0-0-0-0-----------|   -----|

F|-----------------------------------------|
C|-----------------------------------------|
G|-0-0-0-0-0-0-0-0-0-/7-/12--------0-3-3/5-|
D|--------------------------2-X-3----------|


PRE-CHROUS:
F|------------------------------------------------------|
C|------------------------------------------------------|
G|--------3---------------------------------------------|
D|--5--3-----0-0-0-0-0-0-0-0-0-0-0-0-0-0-0-0-0-0-2-3-5--|

CHROUS:
F|--------------------------------------------------------
C|--------------------------------------------------------
G|-0-0-0-0-0-0-0-0-4-5-5-5-5-5-5-5-5-4-5-6-6-5--0-0-0-0-0-
D|----------------------------------------2---2-----------

--------------------------------------------|
--------------------------------------------|X2
-0-0-0-0-0-4-5-5-5-5-5-5-4-5-6-5-6-7--------|
-------------------------------------2-3-4--|

OUTRO:
F|--------------------------------------------------------
C|--------------------------------------------------------
G|-0-0-0-0-0-0-0-0-4-5-5-5-5-5-5-5-5-4-5-6-6-5--0-0-0-0-0-
D|----------------------------------------2---2-----------

--------------------------------------------|
--------------------------------------------|X4
-0-0-0-0-0-4-5-5-5-5-5-5-4-5-6-5-6-7--------|
-------------------------------------2-3-4--|

OUTRO:
F|----------------------------------------------|  
C|----------------------------------------------|X2
G|-0-0-0-0-0-0-0-0-3-5-2--0-0-0-0-0-0-0-0-3-5-2-|  
D|----------------------------------------------|  

FINAL OUTRO
F|---------------------------|
C|---------------------------|
G|-0-0-0-0-0-0-0-0-3-5-2-----|
D|-----------------------3-5-|
Suggest correction
Give kudos to tab author, rate the tab!
1 2 3 4 5
comments
print report bad tab
guest
You may want to rate the tab now too:
select rating
Wanna post a correction for this tab? Suggest correction