Oops, an error
Loading. Please wait.

A Tout Le Monde Bass Tab

version 2
version 2
35,420 views 42 this week
7 commentsread comments
1 2 3 4 5
x 17
add to favorites
launch autoscroll
font size
0
reset
guitar tuner
×
Best way to learn
"A Tout Le Monde"
Autoscroll
slow
fast
+/-
esc
set tempo
stop
Author
Tuning
  follow
D# G# C# F#
Megadeth - A Tout Le Monde

Bass: Dave Mustaine

Tune down 1/2 step (Gb Db Ab Eb)

Intro 8 bars - guitar only

[Verse]

(only guitar for 12 bars, then)

F#|--------------------------|--------------------------|
C#|--------------------------|--------------------------|
G#|-----------------------0--|--0--0--0--0--0--0--0--0--|
D#|--2--2--2--2--2--2--4-----|--------------------------|

F#|--------------------------|--------------------------|
C#|--------------------------|--------------------------|
G#|--2--2--2--2--2--0--2-----|--------------------------|
D#|-----------------------0--|--2--2--2--2--2--2--2--0--|

F#|--------------------------|--------------------------|
C#|--------------------------|--------------------------|
G#|-----------------------0--|--0--0--0--0--0--0--0--0--|
D#|--2--2--2--2--2--2--4-----|--------------------------|

F#|--------------------------|--------------------------|
C#|--------------------------|--0--0--0--0--0--0--0--0--|
G#|--2--2--2--2--2--0--2-----|--------------------------|
D#|-----------------------0--|--------------------------|

[Chorus]

F#|--------------------------|--------------------------|
C#|--0--0--0--0--0--0--0--0--|--------------------------|
G#|--------------------------|--------------------------|
D#|--------------------------|--2--2--2--2--2--2--2--2--|

F#|--------------------------|--------------------------|
C#|--------------------------|--------------------------|
G#|--------------------------|--2--2--2--2--2--2--2--0--|
D#|--0--0--0--0--0--0--0--0--|--------------------------|

F#|--------------------------|--------------------------|
C#|--------------------------|--------------------------|
G#|--------------------------|--0--0--0--0--0--0--0--2--|
D#|--2--2--2--2--2--2--2--2--|--------------------------|

F#|--------------------------|--------------------------|
C#|--------------------------|--------------------------|
G#|--4--4--4--4--4--4--4--4--|--2--2--2--2--2--2--2--2--|
D#|--------------------------|--------------------------|

[Verse 2]

F#|--------------------------|--------------------------|
C#|--0--0--0--0--0--0--0--0--|--------------------------|
G#|--------------------------|--------------------------|
D#|--------------------------|--2--2--2--2--2--2--2--2--|

F#|--------------------------|--------------------------|
C#|--------------------------|--------------------------|
G#|--------------------------|--2--2--2--2--2--2--2-----|
D#|--0--0--0--0--0--0--0--0--|-----------------------2--|

F#|--------------------------|
C#|--------------------------|
G#|--------------0--0--0-----| [x2]
D#|--3--3--3--3-----------3--|

F#|--------------------------|--------------------------|
C#|--------------------------|--------------------------|
G#|-----------------------0--|--0--0--0--0--0--0--0--0--|
D#|--2--2--2--2--2--2--4-----|--------------------------|

F#|--------------------------|
C#|--------------------------|
G#|--2--2--2--2--2--0--2-----| [x2]
D#|-----------------------0--|

F#|--------------------------|--------------------------|
C#|--0--0--0--0--0--0--0--0--|--0--0--0--0--0--0--0--0--|
G#|--------------------------|--------------------------|
D#|--------------------------|--------------------------|

[Chorus]
(same as chorus 1)

[Guitar Solo]

F#|--------------------------|--------------------------|
C#|--------------------------|--------------------------|
G#|--------------------------|--------------------------|
D#|--2--2--2--2--2--2--2--2--|--0--0--0--0--0--0--0--0--|

F#|--------------------------|--------------------------|
C#|--------------------------|--------------------------|
G#|--2--2--2--2--2--2--2-----|--------------0--0--0-----| [x2]
D#|-----------------------2--|--3--3--3--3-----------3--|

[Verse 3]
(or whatever it is)

F#|--------------------------|--------------------------|
C#|--------------------------|--------------------------|
G#|--------------------1--2--|--2--2--2--2--2--2--2--2--|
D#|--4--4--4--4--4--4--------|--------------------------|

F#|--------------------------|--------------------------|
C#|--------------------------|--------------------------|
G#|--4--4--4--4--4--2--4-----|--------------------------|
D#|-----------------------2--|--4--4--4--4--4--4--4--2--|

F#|--------------------------|--------------------------|
C#|--------------------------|--------------------------|
G#|--------------------1--2--|--2--2--2--2--2--2--2--2--|
D#|--4--4--4--4--4--4--------|--------------------------|

F#|--------------------------|----------------------------|
C#|--------------------------|--2--2--2--2--2--2--2--2----|
G#|--4--4--4--4--4--2--4-----|----------------------------|
D#|-----------------------2--|----------------------------|

F#|-------------------------------------------------------|
C#|--2--2--2--2--2--2--2--2-------------------------------|
G#|-------------------------------------------------------|
D#|-------------------------------------------------------|

[Chorus]
(same as chorus 1 [x2])

[End]

F#|--------------------------|
C#|--------------------------|
G#|--------------------------|
D#|--2--2--2--2--2--2--2--2--|

F#|--------------------------|--------------------------|
C#|--------------------------|--------------------------|
G#|--------------------------|--2--2--2--2--2--2--2-----|
D#|--0--0--0--0--0--0--0--0--|-----------------------2--|

F#|--------------------------|--------------------------|
C#|--------------------------|--------------------------|
G#|--------------0--0--0-----|--------------------------|
D#|--3--3--3--3-----------3--|--2--2--2--2--2--2--2--2--|

F#|--------------------------|--------------------------|
C#|--------------------------|--------------------------|
G#|--------------------------|--2--2--2--2--2--2--2--2--|
D#|--0--0--0--0--0--0--0--0--|--------------------------|

F#|--7-6------------------------|-------------------|
C#|-------7-6-------------------|-------------------|
G#|------------7-5-----------2--|-------------------|
D#|-----------------7-5--4-5----|--2----------------|
Suggest correction
comments
print report bad tab
7 comments total. Showing first comments. show 1 bad comment
+2 reply
SHRED_DA_PICKS 10 Apr 01, 2008 09:51 PM

Hey did you mean to put some spaces at the end of verse 3? because i dont know of an 8 string bass XD. I was just wondering thats all. its supposed to be a comment and a correction. btw (by the way) i listened to the bass tracking of it and that sounded exactly right when i had played along with it.

+1 reply
MaxxRevenge 10 Sep 14, 2008 03:24 AM

100% perfect when i played along to it (Y)

guest
You may want to rate the tab now too:
select rating
Wanna post a correction for this tab? Suggest correction