Oops, an error
Loading. Please wait.

A Tout Le Monde Tab

version 2
version 2
171,346 views 60 this week
45 commentsread comments
1 2 3 4 5
x 72
add to favorites
launch autoscroll
font size
0
reset
how to read this tab
guitar tuner
Autoscroll
slow
fast
+/-
esc
set tempo
stop
Help us to improve Ultimate-Guitar.com Take our survey!
×
Author
Difficulty
Tuning
intermediate
D# G# C# F# A# D#
(Tempo approx. 130 4/4.)

[Intro]
         Acoustic (Let Ring)                                             (x4)
D#|---|----------------|----------------|----------------|----------------|
A#|---|----------------|----------------|----------------|----------------|
F#|---|----2-----2-----|----2-----2-----|----2-----2-----|----------------|
C#|---|--4-----4-----4-|--4-----4-----4-|--4-----4-------|--4-7-------7---|
G#|---|----------------|----------------|2-----2-----2---|----------9-----|
D#|---|2-----2-----2---|0-----0-----0---|--------------2/|3-----3/5-----3-|

[Verse 1]
(Guitar 1)
D#|----------------|----------------|----------------|----------------|
A#|----------------|----------------|----------------|----------------|
F#|----------------|----------------|----------------|----------------|
C#|4-------------7-|--------------7/|9-----------9---|4---------------|
G#|4-------4-4-4-7-|------------7-7/|9---------9-9-9-|4-------------4-|
D#|2-------2-2-2-5-|------------5-5/|7---------7-7-7-|2-------------2-|
           . . .                .              .   .                .

                                                                              (x2)
D#|----------------|----------------|----------------|-------------------------|
A#|----------------|----------------|----------------|-------------------------|
F#|----------------|----------------|----------------|-------------------------|
C#|4-------------7-|--------------7/|9-----------9---|12-12-12-12-12-12-12-11--|
G#|4-------4-4-4-7-|------------7-7/|9---------9-9---|12-12-12-12-12-12-12-11--|
D#|2-------2-2-2-5-|------------5-5/|7---------7-7---|10-10-10-10-10-10-10-9---|
           . . .                .              .

[Chorus]
   Let ring
D#|------9---------|------7---------|------7---------|------5---------|
A#|---10---10----10|---9----9-----7-|---7----7-----7-|---7----7-----5-|
F#|9----------9----|9----------9----|8----------8----|6----------6----|
C#|----------------|----------------|----------------|----------------|
G#|----------------|----------------|----------------|----------------|
D#|----------------|----------------|----------------|----------------|

(Guitar 2)     
D#|----------------|----------------|----------------|----------------|
A#|----------------|----------------|----------------|----------------|
F#|----------------|----------------|4---------------|----------------|
C#|4---------------|2---------------|4---------------|4---------------|
G#|4---------------|2---------------|2---------------|4---------------|
D#|2---------------|0---------------|----------------|2---------------|

D#|------9---------|------7---------|------7---------|----------------|
A#|---10---10----10|---9----9-----7-|--------7-------|----------------|
F#|9----------9----|9----------9----|---8-------8----|7---------------|
C#|----------------|----------------|9-------------9-|7---------------|
G#|----------------|----------------|----------------|----------------|
D#|----------------|----------------|----------------|----------------|

D#|----------------|----------------|----------------|----------------|
A#|----------------|----------------|----------------|----------------|
F#|2---------------|6---------------|4---------------|----------------|
C#|2---------------|6---------------|4---------------|0---------------|
G#|0---------------|4---------------|2---------------|0---------------|
D#|----------------|----------------|----------------|----------------|

[Verse 2]
    Acoustic (Let Ring)                                         
D#|----------------|----------------|----------------|----------------|
A#|----------------|----------------|----------------|----------------|
F#|----2-----2-----|----2-----2-----|----2-----2-----|----------------|
C#|--4-----4-----4-|--4-----4-----4-|--4-----4-------|--4-7-------7---|
G#|----------------|----------------|2-----2-----2---|----------9-----|
D#|2-----2-----2---|0-----0-----0---|--------------2/|3-----3/5-----3-|(x2)
      
(Guitar 1)
D#|----------------|----------------|----------------|----------------|
A#|----------------|----------------|----------------|----------------|
F#|----2-----2-----|----2-----2-----|----2-----2-----|----------------|
C#|--4-----4-----4-|--4-----4-----4-|--4-----4-------|--4-7-------7---|
G#|----------------|----------------|2-----2-----2---|----------9-----|
D#|2-----2-----2---|0-----0-----0---|--------------2/|3-----3/5-----3-|
   . .   . .   .    . .   . .   .    . .   . .   .      .       .

(Guitar 1)
D#|----------------|----------------|----------------|----------------|
A#|----------------|----------------|----------------|----------------|
F#|----------------|----------------|----------------|----------------|
C#|4-------------7-|--------------7/|9-----------9---|4---------------|
G#|4-------4-4-4-7-|------------7-7/|9---------9-9-9-|4-------------4-|
D#|2-------2-2-2-5-|------------5-5/|7---------7-7-7-|2-------------2-|
           . . .                .              .   .                .

                                                                              (x2)
D#|----------------|----------------|----------------|-------------------------|
A#|----------------|----------------|----------------|-------------------------|
F#|----------------|----------------|----------------|-------------------------|
C#|4-------------7-|--------------7/|9-----------9---|12-12-12-12-12-12-12-11--|
G#|4-------4-4-4-7-|------------7-7/|9---------9-9---|12-12-12-12-12-12-12-11--|
D#|2-------2-2-2-5-|------------5-5/|7---------7-7---|10-10-10-10-10-10-10-9---|
         . . .                .              .

[Chorus]
   Let ring
D#|------9---------|------7---------|------7---------|------5---------|
A#|---10---10----10|---9----9-----7-|---7----7-----7-|---7----7-----5-|
F#|9----------9----|9----------9----|8----------8----|6----------6----|
C#|----------------|----------------|----------------|----------------|
G#|----------------|----------------|----------------|----------------|
D#|----------------|----------------|----------------|----------------|

(Guitar 2)
D#|----------------|----------------|----------------|----------------|
A#|----------------|----------------|----------------|----------------|
F#|----------------|----------------|4---------------|----------------|
C#|4---------------|2---------------|4---------------|4---------------|
G#|4---------------|2---------------|2---------------|4---------------|
D#|2---------------|0---------------|----------------|2---------------|

D#|------9---------|------7---------|------7---------|----------------|
A#|---10---10----10|---9----9-----7-|--------7-------|----------------|
F#|9----------9----|9----------9----|---8-------8----|7---------------|
C#|----------------|----------------|9-------------9-|7---------------|
G#|----------------|----------------|----------------|----------------|
D#|----------------|----------------|----------------|----------------|

(Guitar 2)
D#|----------------|----------------|----------------|----------------|
A#|----------------|----------------|----------------|----------------|
F#|2---------------|6---------------|4---------------|----------------|
C#|2---------------|6---------------|4---------------|0---------------|
G#|0---------------|4---------------|2---------------|0---------------|
D#|----------------|----------------|----------------|----------------|

[Lead Solo 1]
(Guitar 1)                                                               
D#|----------------|----------------|----------------|----------------|
A#|----------------|----------------|----------------|----------------|
F#|----------------|----------------|4---------------|----------------|
C#|4---------------|2---------------|4---------------|5-----5-7-----5-|
G#|4---------------|2---------------|2-------------4-|5-----5-7-----5-|
D#|2---------------|0---------------|--------------2-|3-----3-5-----3-|(x2)

[Marty]
(Ignore This!)
D#|----------------|----------------|----------------|----------------|
A#|--10------------|----------------|----------------|----------------|
F#|11--11911-------|-----6----------|--------/6-4----|----------------|
C#|--------/11-----|9-79----x/4-----|-----4-4--------|----------------|
G#|----------------|------9---------|4h5-5-----------|----------------|
D#|----------------|----------------|----------------|----------------|

[Verse 3]
(Guitar 1)
D#|----------------|----------------|----------------|----------------|
A#|----------------|----------------|----------------|----------------|
F#|----------------|----------------|----------------|----------------|
C#|6-------------9-|--------------9/|11----------11--|6---------------|
G#|6-------6-6-6-9-|------------9-9/|11--------111111|6-------------6-|
D#|4-------4-4-4-7-|------------7-7/|9---------9-9-9-|4-------------4-|
           . . .                .              .   .                .

                                                                              (x2)
D#|----------------|----------------|----------------|-------------------------|
A#|----------------|----------------|----------------|-------------------------|
F#|----------------|----------------|----------------|-------------------------|
C#|6-------------9-|--------------9/|11----------11--|14-14-14-14-14-14-14-13--|
G#|6-------6-6-6-9-|------------9-9/|11--------1111--|14-14-14-14-14-14-14-13--|
D#|4-------4-4-4-7-|------------7-7/|9---------9-9---|12-12-12-12-12-12-12-11--|
           . . .                .              .

[Chorus]
   Let ring
D#|------9---------|------7---------|------7---------|------5---------|
A#|---10---10----10|---9----9-----7-|---7----7-----7-|---7----7-----5-|
F#|9----------9----|9----------9----|8----------8----|6----------6----|
C#|----------------|----------------|----------------|----------------|
G#|----------------|----------------|----------------|----------------|
D#|----------------|----------------|----------------|----------------|

(Guitar 2)
D#|----------------|----------------|----------------|----------------|
A#|----------------|----------------|----------------|----------------|
F#|----------------|----------------|4---------------|----------------|
C#|4---------------|2---------------|4---------------|4---------------|
G#|4---------------|2---------------|2---------------|4---------------|
D#|2---------------|0---------------|----------------|2---------------|
                                                               
D#|------9---------|------7---------|------7---------|---------------|
A#|---10---10----10|---9----9-----7-|--------7-------|---------------|
F#|9----------9----|9----------9----|---8-------8----|7--------------|
C#|----------------|----------------|9-------------9-|7--------------|
G#|----------------|----------------|----------------|---------------|
D#|----------------|----------------|----------------|---------------|(x2)

(Guitar 2)
D#|----------------|----------------|----------------|---------------|
A#|----------------|----------------|----------------|---------------|
F#|2---------------|6---------------|4---------------|---------------|
C#|2---------------|6---------------|4---------------|0--------------|
G#|0---------------|4---------------|2---------------|0--------------|
D#|----------------|----------------|----------------|---------------|

[Lead Solo 2]
(Notated at (2x) spacing)

(Guitar 1)
D#|--------------------------------|--------------------------------|
A#|--------------------------------|--------------------------------|
F#|--------------------------------|--------------------------------|
C#|4-------------------------------|2-------------------------------|
G#|4-------------------------------|2-------------------------------|
D#|2-------------------------------|0-------------------------------|

(Guitar 2) 
D#|--------------------------------|--------------------------------|
A#|1412--14----1412--14------------|14----1412----------------------|
F#|--------11----------11----------|--1111----------14----13--------|
C#|--------------------------------|----------------------------14--|
G#|--------------------------------|--------------------------------|
D#|--------------------------------|--------------------------------|

(Guitar 3)
D#|1412--14----1412--14------------|14----14------------------------|
A#|--------14----------14----------|--1414--12------15----14--------|
F#|--------------------------------|----------------------------14--|
C#|--------------------------------|--------------------------------|
G#|--------------------------------|--------------------------------|
D#|--------------------------------|--------------------------------|

(Guitar 1)
D#|--------------------------------|--------------------------------|
A#|--------------------------------|--------------------------------|
F#|4-------------------------------|--------------------------------|
C#|4-------------------------------|5-----------5---7-----------5---|
G#|2-------------------------------|5-----------5---7-----------5---|
D#|--------------------------------|3-----------3---5-----------3---|
                                                                .
(Guitar 2)
D#|--------------------------------|--------------------------------|
A#|1514--15----1512--15------------|------1215------14----12--------|
F#|--------11----------11----------|----11----------------------14--|
C#|--------------------------------|--12----------------------------|
G#|--------------------------------|14------------------------------|
D#|--------------------------------|*Sweep--------------------------|

(I'm not sure about (Guitar 3), it plays the same tune but higher, like above.)

(Guitar 1)
D#|--------------------------------|--------------------------------|
A#|--------------------------------|--------------------------------|
F#|--------------------------------|--------------------------------|
C#|4-------------------------------|2-------------------------------|
G#|4-------------------------------|2-------------------------------|
D#|2-------------------------------|0-------------------------------|

(Guitar 2)
D#|--------------------------------|--------------------------------|
A#|1412--14----1412--14------------|14----1412----------------------|
F#|--------11----------11----------|--1111----------14----13--------|
C#|--------------------------------|----------------------------14--|
G#|--------------------------------|--------------------------------|
D#|--------------------------------|--------------------------------|

(Guitar 3)
D#|1412--14-----1412-14------------|14----14------------------------|
A#|--------14----------14----------|--1414--12------15----14--------|
F#|--------------------------------|----------------------------14--|
C#|--------------------------------|--------------------------------|
G#|--------------------------------|--------------------------------|
D#|--------------------------------|--------------------------------|

[Outro]
(Guitar 2)
D#|--------------------------------|
A#|1514----------------------------|
F#|------1413----------------------|
C#|------------1412----------------|
G#|------------------1412--11-12-14|
D#|--------------------------------|

(I'm not sure about Guitar 1 or 3).

(Acoustic)
(Let Ring)
D#|----------------|----------------|----------------|----------------|
A#|----------------|----------------|----------------|----------------|
F#|----2-----2-----|----2-----2-----|----2-----2-----|----------------|
C#|--4-----4-----4-|--4-----4-----4-|--4-----4-------|--4-7-------7---|
G#|----------------|----------------|2-----2-----2---|----------9-----|
D#|2-----2-----2---|0-----0-----0---|--------------2/|3-----3/5-----3-|

(Guitar 1)
D#|----------------|----------------|----------------|----------------|
A#|----------------|----------------|----------------|----------------|
F#|----------------|----------------|----------------|----------------|
C#|4---------------|----------------|----------------|----------------|
G#|4---------------|----------------|----------------|----------------|
D#|2---------------|----------------|----------------|----------------|

(Guitar 2)
D#|----------------|----------------|----------------|----------------|
A#|----------------|----------------|----------------|----------------|
F#|----------------|----------------|----------------|----------------|
C#|----------------|----------------|----------------|----------------|
G#|\9--------------|----------------|----------------|----------------|
D#|----------------|----------------|----------------|----------------|

D#|----------------|----------------|2---------------|----------------|
A#|----------------|----------------|2---------------|----------------|
F#|----------------|----------------|2---------------|----------------|
C#|----0---0-------|----0---0-------|4---------------|----------------|
G#|--4---4---4---4-|--4---4---4---4-|4---------------|----------------|
D#|2-----------2---|2-----------2---|2---------------|----------------|

(Guitar 2)
D#|----------------|----------------|----------------|----------------|
A#|----------------|----------------|----------------|----------------|
F#|----------------|----------------|9b11------------|----------------|
C#|----------------|----------------|----------------|----------------|
G#|----------------|----------------|----------------|----------------|
D#|----------------|----------------|----------------|----------------|

(Clean tone bit)
D#|-----------------------------------------------------------------------|
A#|-----------------------------------------------------------------------|
F#|--------2---------2-----------------2------2---------------------------|
C#|-----------------------------------------------------------------------|
G#|----4---------4---------4------4--------4--------4---------------------|
D#|-2---------2---------2------0--------0--------0------------------------|

D#|-----------------------------------------------------------------------|
A#|-----------------------------------------------------------------------|
F#|-------2------2------------2------------2------------------------------|
C#|----4-------4----4------0------------2---------------------------------|
G#|-2--------2-----------------------0------------------------------------|
D#|-------------------2/3---------3------------3--------------------------|

[Pre-Chorus]
         P.M....                         P.M........
D#|-----------------------------------------------------------------------|
A#|-----------------------------------------------------------------------|
F#|---------------2-----------2h4---------2---4---------------------------|
C#|-4-----2---4---2-----------2h4---------2---4--------4------------------|
G#|-4-----2---4---0---------x--------------------------4------------------|
D#|-2--------------------------------------------0-----2------------------|

  P.M.      P.M...                P.M.
D#|-----------------------------------------------------------------------|
A#|-----------------------------------------------------------------------|
F#|----------------2-----------4----2-4------7-7-7-7-7-7-7-7-7-7-7-7-7-7--|
C#|----4-----2--4--2-----------4----2-4------7-7-7-7-7-7-7-7-7-7-7-7-7-7--|
G#|----4-----2--4--0---------x-2------2--x---5-5-5-5-5-5-5-5-5-5-5-5-5-5--|
D#|-0--2------------------------------------------------------------------|

[Chorus]
(Lead part)
  "a tout le monde        a tout mes Amis          Je vous aime
D#|--------9------9------9-------7----7-----7---------7-----7-----7-------|
A#|----10-----10--------------9-----9---------------7----7----------------|
F#|-9----------------9------9------------9-------8------------8-----------|
C#|-----------------------------------------------------------------------|
G#|-----------------------------------------------------------------------|
D#|-----------------------------------------------------------------------|

(Lead bit continued)
  "je dois partir     these are the last words I'll everr speak
D#|-------5----5-----5---------5----5---5--------4----4----4--------------|
A#|----7-----7---------------5----5-----------5-----5---------------------|
F#|-6-------------6-------6-----------6----6------------6-----------------|
C#|-----------------------------------------------------------------------|
G#|-----------------------------------------------------------------------|
D#|-----------------------------------------------------------------------|

(lead bit continued)
"And they'll set me free"

D#|-------2------2----2---0-----------------------------------------------|
A#|----2-----2------------3-----------------------------------------------|
F#|-4-------------4-------2-----------------------------------------------|
C#|-----------------------0-----------------------------------------------|
G#|-----------------------------------------------------------------------|
D#|-----------------------------------------------------------------------|

(Ok, here's the rhythm bit for the chorus)
                                 P.M..
D#|-----------------------------------------------------------------------|
A#|-----------------------------------------------------------------------|
F#|--------------------4----------------------6------4---7-7-7-7-7-7-7-7-7|
C#|-4---------2--------4-----4---------4------6------4---7-7-7-7-7-7-7-7-7|
G#|-4---------2--------2-----4---------4------4------2---5-5-5-5-5-5-5-5-5|
D#|-2---------0--------------2-----0---2----------------------------------|

(2nd verse rhythm is just the clean tone part distorted and
palm muted, listen to the song)

       P.M...                  P.M.......
D#|-----------------------------------------------------------------------|
A#|-----------------------------------------------------------------------|
F#|------------4------x---4H6----4---6------------------------------------|
C#|-6----4-6---4------x---4H6----4---6--4-----6---------------------------|
G#|-6----4-6----------------------------4-----6---------------------------|
D#|-4-----------------------------------------4---------------------------|

D#|-----------------------------------------------------------------------|
A#|-----------------------------------------------------------------------|
F#|-------------4---------4h6-----4--6---9-9-9-9-9-9-9-9-9-9-9-9-9-9-9----|
C#|---6---4--6--4-----x---4h6-----4--6---9-9-9-9-9-9-9-9-9-9-9-9-9-9-9----|
G#|---6---4--6--------x------------------7-7-7-7-7-7-7-7-7-7-7-7-7-7-7----|
D#|-x-4-------------------------------------------------------------------|

(Guitar 1) 
D#|-9---------9--------9--------9-----------------------------------------|
A#|----12-----------------12------/14------------14---12~~~~~-------------|
F#|---------------11-------------------------14---------------14--13------|
C#|--------------------------------------14---------------------------14--|
G#|-----------------------------------------------------------------------|
D#|-----------------------------------------------------------------------|
                                                                         
(Guitar 2)                                                               
D#|-----------------------------------------------------------------------|
A#|-----------------------------------------------------------------------|
F#|-14--13---14--------14-13---14--11--------11-14--13---11--9------------|
C#|---------------11---------------------11----------------------11-------|
G#|-----------------------------------------------------------------------|
D#|-----------------------------------------------------------------------|

(Guitar 1) 
D#|--10--9--10------10--9---10--------------------------------------------|
A#|-------------------------------/15--------------12---15--14--12--10----|
F#|-------------11-----------------------------12-------------------------|
C#|----------------------------------------12-----------------------------|
G#|-----------------------------------------------------------------------|
D#|-----------------------------------------------------------------------|
                                                                      
(Guitar 2)                                                               
D#|-----------------------------------------------------------------------|
A#|--12-10--12-------12-10--12--------------------------------------------|
F#|--------------------------------11--------------12--16--14--12---11----|
C#|--------------12----------------------------12-------------------------|
G#|----------------------------------------12-----------------------------|
D#|-----------------------------------------------------------------------|

(Guitar 1) 
D#|-10--9--10--------10-9-10----------------------------------------------|
A#|--------------------------/15-----15-14--------------------------------|
F#|-------------11-------------------------14-13--------------------------|
C#|----------------------------------------------14-12--------------------|
G#|-----------------------------------------------------14--12--11--12--14|
D#|-----------------------------------------------------------------------|
                                                                     
(Guitar 2)                                                               
D#|-----------------------------------------------------------------------|
A#|-12-10--12------12-10-12-----------------------------------------------|
F#|--------------------------11-------7--6--------------------------------|
C#|------------12---------------------------7--6--------------------------|
G#|-----------------------------------------------7-5---------------------|
D#|---------------------------------------------------7-5------4--5--7\---|

D#|-----------------------------------------------------------------------|
A#|-----------------------------------------------------------------------|
F#|--------2---------2-----------------2------2---------------------------|
C#|-----------------------------------------------------------------------|
G#|----4---------4---------4------4--------4--------4---------------------|
D#|-2---------2---------2------0--------0--------0------------------------|

D#|-----------------------------------------------------------------------|
A#|-----------------------------------------------------------------------|
F#|-------2------2------------2------------2------------------------------|
C#|----4-------4----4------0------------2---------------------------------|
G#|-2--------2-----------------------0------------------------------------|
D#|-------------------2/3---------3------------3--------------------------|

D#|---------------------------------------------------~2~-----------------|
A#|---------------------------------------------------~2~-----------------|
F#|---------------------------------------------------~2~-----------------|
C#|---------0-----0------------------0---0------------~4~-----------------|
G#|-----4------4-----4-----4------4----4----4-----4---~4~-----------------|
D#|-2-------------------2------2---------------2------~2~-----------------|


************************************

| /  Slide up
| .  Staccato
| h  Hammer-on
| \  Slide down
| b  Bend
| ~  Vibrato

************************************
Suggest correction
comments
print report bad tab
45 comments total. Showing first comments.
+3 reply
funyguy1357 16 Jun 22, 2007 10:46 PM

why does it say standard tuning when the tab says its tuned down?

0 reply
confinedforever 977 Jun 23, 2007 07:14 PM

its not tuned down my bad,, standard

0 reply
a god 125 Jul 03, 2007 08:44 PM

great tab-it seemed pretty accurate to me. but it seems that Dave uses power chords for riff 2

guest
You may want to rate the tab now too:
select rating
Wanna post a correction for this tab? Suggest correction