Oops, an error
Loading. Please wait.

A Tout Le Monde Bass Tab

version 3
version 3
23,143 views 6 this week
no commentswrite comment
1 2 3 4 5
please rate
add to favorites
launch autoscroll
font size
0
reset
guitar tuner
Autoscroll
slow
fast
+/-
esc
set tempo
stop
Help us to improve Ultimate-Guitar.com Take our survey!
×
Author
Difficulty
intermediate
This is the live version tabs 
Check it out here:
http://www.youtube.com/watch?v=jIRikLI5fCY


Tuning: Standard


Intro Guitar only


Pre-Chorus

G|-------------------------------------------------------------------------------|
D|-------------------------------------------------------------------------------|
A|---------------0-0-0-0-0-0-0-0-2-2-2-2-2-0-2-----------------------------------|
E|-2-2-2-2-2-2-4-------------------------------0-2-2-2-2-2-2-2-------------------|


G|-------------------------------------------------------------------------------|
D|-----------------------------------------------0-0-0-0-0-0-0-0-0-0-0-0-0-0-0-0-|
A|-----------------0-0-0-0-0-0-0-2-2-2-2-2-0-2-----------------------------------|
E|-0-2-2-2-2-2-2-4-----------------------------0---------------------------------|


Chorus


G|-------------------------------------------------------------------------------|
D|-------------------------------------------------------------------------------|
A|---------------------------------2-2-2-2-2-2-2-0-------------------------------|
E|-2-2-2-2-2-2-2-2-0-0-0-0-0-0-0-0-----------------2-2-2-2-2-2-2-----------------|

G|-------------------------------------------------------------------------------|
D|-------------------------------------------------0-0-0-0-0-0-0-0---------------|
A|--0-0-0-0-0-0-0-0-2-4-4-4-4-4-4-4--2-2-2-2-2-2-2-------------------------------|
E|-------------------------------------------------------------------------------|


Verse 2x


G|-------------------------------------------------------------------------------|
D|-------------------------------------------------------------------------------|
A|---------------------------------2-2-2-2-2-2-2----------0-0-0------------------|
E|-2-2-2-2-2-2-2-2-0-0-0-0-0-0-0-0---------------2-3-3-3-3------3-2-2-2-2-2-2-2--|


Pre-Chorus

G|-------------------------------------------------------------------------------|
D|-------------------------------------------------------------------------------|
A|---------------0-0-0-0-0-0-0-0-2-2-2-2-2-0-2-----------------------------------|
E|-2-2-2-2-2-2-4-------------------------------0-2-2-2-2-2-2-2-------------------|

G|-------------------------------------------------------------------------------|
D|-----------------------------------------------0-0-0-0-0-0-0-0-0-0-0-0-0-0-0-0-|
A|-----------------0-0-0-0-0-0-0-2-2-2-2-2-0-2-----------------------------------|
E|-0-2-2-2-2-2-2-4-----------------------------0---------------------------------|


Chorus


G|-------------------------------------------------------------------------------|
D|-------------------------------------------------------------------------------|
A|---------------------------------2-2-2-2-2-2-2-0-------------------------------|
E|-2-2-2-2-2-2-2-2-0-0-0-0-0-0-0-0-----------------2-2-2-2-2-2-2-----------------|

G|-------------------------------------------------------------------------------|
D|-------------------------------------------------0-0-0-0-0-0-0-0---------------|
A|--0-0-0-0-0-0-0-0-2-4-4-4-4-4-4-4--2-2-2-2-2-2-2-------------------------------|
E|-------------------------------------------------------------------------------|

Solo 2x


G|-------------------------------------------------------------------------------|
D|-------------------------------------------------------------------------------|
A|---------------------------------2-2-2-2-2-2-2----------0-0-0------------------|
E|-2-2-2-2-2-2-2-2-0-0-0-0-0-0-0-0---------------2-3-3-3-3------3-2-2-2-2-2-2-2--|


AfterSolo ( i dont know what to call this )

G|-------------------------------------------------------------------------------|
D|-------------------------------------------------------------------------------|
A|-------------1-2-2-2-2-2-2-2-2-4-4-4-4-4-2-4-----------------------------------|
E|-4-4-4-4-4-4---------------------------------2-4-4-4-4-4-4-2-------------------|

G|-------------------------------------------------------------------------------|
D|-----------------------------------------------2-2-2-2-2-2-2-2-2-2-2-2-2-2-2-2-|
A|-------------1-2-2-2-2-2-2-2-2-4-4-4-4-4-2-4-----------------------------------|
E|-4-4-4-4-4-4-------------------------------------------------------------------|


CROWD ONLY AWESOME MOMENT

A|-0-0-0-0-0-0-0-0-0-0------------------------------------------------------|

Chorus


G|-------------------------------------------------------------------------------|
D|-------------------------------------------------------------------------------|
A|---------------------------------2-2-2-2-2-2-2-0-------------------------------|
E|-2-2-2-2-2-2-2-2-0-0-0-0-0-0-0-0-----------------2-2-2-2-2-2-2-----------------|

G|-------------------------------------------------------------------------------|
D|-------------------------------------------------0-0-0-0-0-0-0-0---------------|
A|--0-0-0-0-0-0-0-0-2-4-4-4-4-4-4-4--2-2-2-2-2-2-2-------------------------------|
E|-------------------------------------------------------------------------------|

Solo 


G|-------------------------------------------------------------------------------|
D|-------------------------------------------------------------------------------|
A|---------------------------------2-2-2-2-2-2-2----------0-0-0------------------|
E|-2-2-2-2-2-2-2-2-0-0-0-0-0-0-0-0---------------2-3-3-3-3------3-2-2-2-2-2-2-2--|

G|----------------------------------------------7-6------------------------------|
D|--------------------------------------------------7-6--------------------------|
A|---------------------------------2-2-2-2-2-2-2--------7-5---------2------------|
E|-2-2-2-2-2-2-2-2-0-0-0-0-0-0-0-0--------------------------7-5-4-5---2----------|

Guitar Ending
Suggest correction
Give kudos to tab author, rate the tab!
1 2 3 4 5
comments
print report bad tab
guest
You may want to rate the tab now too:
select rating
Wanna post a correction for this tab? Suggest correction