Oops, an error
Loading. Please wait.

Absolution Bass Tab

version 1
version 1

Whole song

Interactive

559 views 1 this week
no commentswrite comment
1 2 3 4 5
please rate
add to favorites
launch autoscroll
font size
0
reset
guitar tuner
Tab Pro tools
  • play this tab
  • loop segment
  • change instrument
  • show fretboard
  • metronome
×
Best way to learn
"Absolution"
Autoscroll
slow
fast
+/-
esc
set tempo
stop
Contributor
 Absolution                                    

Transcribed by an unregistered user
                                                                        Megadeth
David Ellefson



        H        Q     E   E      H        Q    E  E   
G||---------------------------|-----------------------|
D||*--------------------------|-----------------------|
A||*--/19--------L----15------|-----------------------|
E||-----------------------15--|--11--------L----8--5--|


    H        Q     E   E      H        E  E  E  E     W                 
--------------------------|------------------------|-------------------|
--------------------------|------------------------|-------------------|
--/19--------L----15------|------------------------|-------------------|
----------------------15--|--11--------L--8--5--3--|--5----------------|


                                          |----3----|    |--3-|         
  W                   W                   Q    Q    Q    Q    H         
-------------------|-------------------|-------------------------------|
-------------------|-------------------|-------------------------------|
-------------------|-------------------|-------------------------------|
--L----------------|--L----------------|--5----8----8----3----5--------|


  W                   W                     W                 
-------------------|--------------------||-------------------|
-------------------|-------------------*||-------------------|
-------------------|-------------------*||-------------------|
--L----------------|--L-----------------||--5----------------|


  W                   W                     H        Q     E   E   
-------------------|-------------------|--------------------------|
-------------------|-------------------|--------------------------|
-------------------|--L----------------|--/19--------L----15------|
--L----------------|--L----------------|----------------------15--|


   H        Q    E  E       H        Q     E   E      H        E  E  E  E   
-----------------------|--------------------------|------------------------|
-----------------------|--------------------------|------------------------|
-----------------------|--/19--------L----15------|------------------------|
--11--------L----8--5--|----------------------15--|--11--------L--8--5--3--|


  W                   W                   W                   W                 
-------------------|-------------------|-------------------|-------------------|
-------------------|-------------------|-------------------|-------------------|
-------------------|-------------------|-------------------|-------------------|
--5----------------|--L----------------|--L----------------|--L----------------|


  W                   W                   W                   W                 
-------------------|-------------------|-------------------|-------------------|
-------------------|-------------------|-------------------|-------------------|
-------------------|-------------------|-------------------|-------------------|
--L----------------|--L----------------|--L----------------|--L----------------|


  W                   H        Q    E  E     W                 
-------------------|----------------------|-------------------|
-------------------|----------------------|-------------------|
-------------------|----------------------|-------------------|
-------------------|-------------------1--|--0----------------|


  W                   W                   W                   W                 
-------------------|-------------------|-------------------|-------------------|
-------------------|-------------------|-------------------|-------------------|
-------------------|-------------------|-------------------|-------------------|
--L----------------|--L----------------|--L----------------|--L----------------|


  W                   Q    E  E  Q    E  E     Q    E  E  Q    E  E   
-------------------|------------------------|------------------------|
-------------------|------------------------|------------------------|
-------------------|------------------------|------------------------|
--L----------------|--0----L--0--0----L--0--|--9----L--9--9----L--3--|


  Q    E  E  Q    E  E     Q    E  E  Q    E  E     Q    E  E  Q    E  E   
------------------------|------------------------|------------------------|
------------------------|------------------------|------------------------|
------------------------|------------------------|------------------------|
--0----L--0--0----L--0--|--9----L--9--9----3--2--|--0----L--0--0----L--0--|


  Q    E  E  Q    E  E     Q    E  E  Q    E  E     E  Q    E  Q    E  E   
------------------------|------------------------|------------------------|
------------------------|------------------------|------------------------|
------------------------|------------------------|--3-------3-------------|
--9----L--9--9----2--3--|--0----L--0--0----L--0--|------------------3--2--|


  Q    E  E  Q    E  E     Q    E  E  Q    E  E     Q    E  E  Q    E  E   
------------------------|------------------------|------------------------|
------------------------|------------------------|------------------------|
------------------------|------------------------|------------------------|
--0----L--0--0----L--0--|--9----L--9--9----L--3--|--0----L--0--0----L--0--|


  Q    E  E  Q    E  E     Q    E  E  Q    E  E     Q    E  E  Q    E  E   
------------------------|------------------------|------------------------|
------------------------|------------------------|------------------------|
------------------------|------------------------|------------------------|
--9----L--9--9----3--2--|--0----L--0--0----L--0--|--9----L--9--9----2--3--|


  Q    E  E  Q    E  E     E  Q    Q    Q    E     Q.     E  E  Q    E   
------------------------|-----------------------|-----------------------|
------------------------|-----------------------|-----------------------|
------------------------|--3--------------------|-----------------------|
--0----L--0--0----L--0--|-----0----2----3----4--|--8------8--8--8----8--|


  Q.     E  E  Q    E     Q.     E  E  Q    E     Q.     E  E  Q    E   
-----------------------|-----------------------|-----------------------|
-----------------------|-----------------------|-----------------------|
-----------------------|-----------------------|-----------------------|
--7------7--7--7----7--|--6------6--6--6----6--|--5------5--5--5----5--|


  W                   W                   W                 
-------------------|-------------------|-------------------|
-------------------|-------------------|-------------------|
-------------------|-------------------|-------------------|
--4----------------|--3----------------|--2----------------|


  E  Q    E  Q    Q       Q    E  E  Q    E  E     Q    E  E  Q    E  E   
-----------------------|------------------------|------------------------|
-----------------------|------------------------|------------------------|
-----------------------|------------------------|------------------------|
--1--L----4--L----7----|--0----L--0--0----L--0--|--9----L--9--9----L--3--|


  Q    E  E  Q    E  E     Q    E  E  Q    E  E     Q    E  E  Q    E  E   
------------------------|------------------------|------------------------|
------------------------|------------------------|------------------------|
------------------------|------------------------|------------------------|
--0----L--0--0----L--0--|--9----L--9--9----3--2--|--0----L--0--0----L--0--|


  Q    E  E  Q    E  E     Q    E  E  Q    E  E     E  Q    E  Q    E  E   
------------------------|------------------------|------------------------|
------------------------|------------------------|------------------------|
------------------------|------------------------|--3-------3-------------|
--9----L--9--9----2--3--|--0----L--0--0----L--0--|------------------3--2--|


  Q    E  E  Q    E  E     Q    E  E  Q    E  E     Q    E  E  Q    E  E   
------------------------|------------------------|------------------------|
------------------------|------------------------|------------------------|
------------------------|------------------------|------------------------|
--0----L--0--0----L--0--|--9----L--9--9----L--3--|--0----L--0--0----L--0--|


  Q    E  E  Q    E  E     Q    E  E  Q    E  E     Q    E  E  Q    E  E   
------------------------|------------------------|------------------------|
------------------------|------------------------|------------------------|
------------------------|------------------------|------------------------|
--9----L--9--9----3--2--|--0----L--0--0----L--0--|--9----L--9--9----2--3--|


  Q    E  E  Q    E  E     E  Q    Q    Q    E     Q.     E  E  Q    E   
------------------------|-----------------------|-----------------------|
------------------------|-----------------------|-----------------------|
------------------------|--3--------------------|-----------------------|
--0----L--0--0----L--0--|-----0----2----3----4--|--8------8--8--8----8--|


  Q.     E  E  Q    E     Q.     E  E  Q    E     Q.     E  E  Q    E   
-----------------------|-----------------------|-----------------------|
-----------------------|-----------------------|-----------------------|
-----------------------|-----------------------|-----------------------|
--7------7--7--7----7--|--6------6--6--6----6--|--5------5--5--5----5--|


  W                   W                   W                 
-------------------|-------------------|-------------------|
-------------------|-------------------|-------------------|
-------------------|-------------------|-------------------|
--4----------------|--3----------------|--2----------------|


  E  E  H        Q       W                   W                 
----------------------|-------------------|-------------------|
----------------------|-------------------|-------------------|
----------------------|-------------------|--3----------------|
--1-------------------|-------------------|-------------------|


  W                   E   E  H        Q      
-------------------|-----------------------||
-------------------|-----------------------||
--L----------------|--3\-------------------||
-------------------|-----------------------||




Duration Legend
---------------
W - whole
H - half
Q - quarter
E - 8th
S - 16th
T - 32nd
X - 64th
. - note dotted
|-n-|  - n-tuplets


Tablature Legend
----------------
L - tied note
x - dead note
g - grace note
(n) - ghost note
> - accentuded note
NH - natural harmonic
AH - artificial harmonic
TH - tapped harmonic
SH - semi harmonic
PH - pitch harmonic
h - hammer on
p - pull off
b - bend
br - bendRelease
pb - preBend
pbr - preBendRelease
brb - bendReleaseBend
\n/ - tremolo bar dip
\n - tremolo bar dive
-/n - tremolo bar Release up
/n\ - tremolo bar inverted dip
/n - tremolo bar return
-\n - tremolo bar Release down
S - shift slide
s - legato slide
/ -  slide into from below or out of upwards
\ -  slide into from above or out of downwards
~ - vibrato
W - wide vibrato
tr - trill
TP - tremolo picking
T - tapping
S - slap
P - pop
< - fade in
^ - brush up
v - brush down
comments
We did not receive enough feedback on this tab! Please rate:
print report bad tab
1 2 3 4 5
I want to post or [tab]
guest
You may want to rate the tab now too:
select rating
Please do not post tabs as comments. Select "correction" instead!