Oops, an error
Loading. Please wait.

Addicted To Chaos Bass Tab

version 1
version 1

Whole song

Interactive

4,482 views 3 this week
no commentswrite comment
1 2 3 4 5
please rate
add to favorites
launch autoscroll
font size
0
reset
guitar tuner
Tab Pro tools
  • play this tab
  • loop segment
  • change instrument
  • show fretboard
  • metronome
×
Best way to learn
"Addicted To Chaos"
Autoscroll
slow
fast
+/-
esc
set tempo
stop
Addicted to Chaos by Megadeth
>From the album Youthanasia

This is a great song BASSically
I think everyone should know how
to play this

Start fill
Gb|-------------|
Db|-----------5-|
Ab|-----5h7-----|
Eb|-5h7---------|

Figure 1
Gb|---------------------------------|
Db|---------------------------------|
Ab|-7---------------5---------------|
Eb|---0-0-0-0-0-0-0---0-0-0-0-0-0-0-|

Gb|---------------------------------|
Db|---------------------------------|
Ab|-4---------------5---------------|
Eb|---0-0-0-0-0-0-0---0-0-0-0-0-0-0-|

Bridge
Gd|-----------------|
Db|-----------------|
Ab|-3-------0---2---|
Eb|-----------------|

Figure 2
Gb|------------------------------------|
Db|------------------------------------|
Ab|--------------------2----0---0h2----| x3
Eb|-0--0--3-2--2--2-3-----3--------3h5-|

Gb|------------------------------------|
Db|------------------------------------|
Ab|----2-------5----3-r-3-3-3-0-0-2-2--|
Eb|-0-----3-2-----2--------------------|

Figure 3
Gb|---------------------------------|
Db|---------------------------------|
Ab|-0-0-0-0-0-0-0-0-----------------|
Eb|-----------------1-1-1-1-3-3-3-3-|

Gb|---------------------------------|
Db|---------------------------------|
Ab|-0-0-0-0-0-0-0-0-----------2-3-5-|
Eb|-----------------1-1-1-1-3-------|

Gb|---------------------------------|
Db|---------------------------------|
Ab|-0-0-0-0-0-0-0-0-----------------|
Eb|-----------------1-1-1-1-3-3-3-3-|

Gb|------------------------------------|
Db|----------5h7------0-2-3--2---------|
Ab|-0-----5h7------------------3-2-----|
Eb|--------------------------------3-1-|

Figure 4
Gb|------------------------------------|
Db|------------------------------------|
Ab|------------------------------------| x4
Eb|-0-0-0-0-0-0-0-0-5-5-5-5-5-5-5p3----|

Gb|------------------------------------|
Db|------------------------------------|
Ab|-----------------2-2-2-2-2-2-2p0----| x2
Eb|-2-2-2-2-2-2-2-2--------------------|

Fill

Gb|----------------|
Db|-----10------10-|
Ab|0--8----0--9----|
Eb|----------------|

Figure 5
Gb|-----------------------------------------------|
Db|------------------0h2--------------------------|
Ab|-----------0-0-0h2-----------------0-0-0h2-0---|
Eb|-0-0-2h3----------------0-0-2h3--------------3-|

Gb|-------------------------------------2p0-----|
Db|------------------0h2-------------------2----|
Ab|-----------0-0-0h2---------------0-0---------|
Eb|-0-0-2h3--------------0-0-2h3----------------|

Figures played in this order

intro (rest for 7 1/2 bars)
start fill
Figure 1 x3 3/4
Bridge
Figure 2
Figure 3
Figure 1 x4 3/4
Bridge
Figure 2
Figure 3
Figure 4
Figure 2
Figure 3 x2 (place the fill to it's place)
Figure 5 x4
comments
We did not receive enough feedback on this tab! Please rate:
print report bad tab
1 2 3 4 5
I want to post or [tab]
guest
You may want to rate the tab now too:
select rating
Please do not post tabs as comments. Select "correction" instead!