Oops, an error
Loading. Please wait.

Back In The Day Bass Tab

version 1
version 1

Whole song

Interactive

2,786 views 1 this week
1 commentread comment
1 2 3 4 5
excellent!
x 2
add to favorites
launch autoscroll
font size
0
reset
guitar tuner
Tab Pro tools
  • play this tab
  • loop segment
  • change instrument
  • show fretboard
  • metronome
Autoscroll
slow
fast
+/-
esc
set tempo
stop
Contributor
Difficulty
intermediate
Back In The Day - Megadeth

Standard Tuning



No bass in Intro



Verse (0:16)

G|---------------|
D|0-0-0-0-0-0-0-0|
A|---------------|
E|---------------| x16

Chorus (0:31)

G|-------------------------------------------|
D|-------------------------------------------|
A|5---------------------5--------------------|
E|----5/6---6-6-6-6-6-6-----5/6---6-6-6-6-6-8| x2

Pre-Verse (0:40) or whatever + Verse II (0:48)

G|---------------|
D|0-0-0-0-0-0-0-0|
A|---------------|
E|---------------|x8 (Pre-Verse) x8 (Verse)

Chorus (0:56)

G|----------------------|---------------------|
D|----------------------|---------------------|
A|5---------------------|5--------------------|
E|----5/6---6-6-6-6-6-6-|----5/6---6-6-6-6-6-8| x2

Solo (1:05) + Verse III (1:13)

G|----------------------------|----------------------------|
D|----2-----------------------|----3-----------------------|
A|--------2---2p0-2p0-2p0-----|--------3----3p2-3p2-3p2----|
E|0-----------------------3/1-|0------------------------3/2| x4

Solo II (1:21)

 <---------------------------------------------->  <-- Can't hear TOO well
G|--------------|---------------|---------------|----------------|
D|------6/7---6-|------9/10---9-|------7/8----7-|----------5-6-7-|
A|0-0-0-----0---|0-0-0------0---|0-0-0-----0----|----5-6-7-------|
E|--------------|---------------|---------------|6-7-------------| x4

Bridge or whatever (1:38)

G|-------------|-------------|-------------|-------------|
D|-------------|-------------|-------------|-------------|
A|3------------|-------------|3------------|-----6----/5-|
E|-----4----/3-|(3)--1----/3-|-----4----/3-|(3)----------| x4

SLOW DOWN

Verse IV(1:54) -x4-  Do the whole verse 4 times

G|-----------------|-----------------|
D|-------------5-6-|-------------6-5-|
A|3-333-333-33-----|3-333-333-33-----| 
E|-----------------|-----------------| x2 

G|-----------------|-----------------|-----------------------------------|
D|-----------------|-----------------|-------------5-6-|-------------6-5-|
A|6-666-666-666-66-|5-555-554-444-44-|3-333-333-33-----|3-333-333-33-----|
E|-----------------|-----------------|-----------------|-----------------|

Then the thingy before the outro (3:00)

G|-------------------|------------------|
D|-------------------|------------------|
A|33333333333333-5-6-|3333333333333-6-5-|
E|-------------------|------------------| x4

Outro (3:16)

G|----320-----|
D|-------320--|
A|3-3-------32| x4 
E|------------|

G|---------|
D|---------|
A|---------|
E|8/-------|

  Can do 3/ on A if you can't move fast enough


Any questions, comments, or corrections, email me at wj_bq2004@yahoo.com
comments
We did not receive enough feedback on this tab! Please rate:
print report bad tab
1 2 3 4 5
1 comment total.
0 reply
TehNpvz wrote on April 10 2006, 08:12 pm

Yeah, just a note to you all, I accidentally screwed up the 4th Verse or whatever.

It was meant to be:

G|----------------|----------------|
D|----------------|----------------|
A|3-333-333-33-5-6|3-333-333-33-6-5|
E|----------------|----------------|

I tabbed this song when I was really tired, so I guess I really didn't pay attention to it...just a little note

I want to post or [tab]
guest
You may want to rate the tab now too:
select rating
Please do not post tabs as comments. Select "correction" instead!