Oops, an error
Loading. Please wait.

Blessed Are The Dead Bass Tab

version 1
version 1

Whole song

Interactive

689 views 1 this week
1 commentread comment
1 2 3 4 5
excellent!
x 1
add to favorites
launch autoscroll
font size
0
reset
guitar tuner
Tab Pro tools
  • play this tab
  • loop segment
  • change instrument
  • show fretboard
  • metronome
Autoscroll
slow
fast
+/-
esc
set tempo
stop
Contributor
Band: Megadeth
Song: Blessed Are The Dead
Album: United Abominations
Tuning 4 string: E A D G
Tabbed by: ClosedRoad

Intro         1x                                                     2x
G ------------|-------------------------------------------------------|
D ------------|-------------------------------------------------------|
A ------------|----------3333333333333333-0000000000000000------------|
E -0000-(16x)-|-0000-(4x)----------------------------------0000-(4x)--|

pre Verse
G -------------|
D -------------|
A -------------|
E -0000-(16x)--|

Verse
G -----------------------------------------------|
D -----------------------------------------------|
A -----------------------------------------5p0---|
E -302--22-0-3-1-2---220302--22-0-3-1-2--22---0--|

after Verse
G ---------------------------------------------------|
D ---------------------------------------------------|
A ---------5p0---------5p0---------5p0---------5p0---|
E -00-0000-----00-0000-----00-0000-----00-0000----0--|

Pre Chorus
G -----------------------------------------------------|
D -----------------------------------------------------|
A -0-0---0-5-3--5-3-2--------0-0---0-5-3--5-3-2--------|
E -----3--------------3-0-3------3--------------3-0-3--|

G ---------------------------------------------------|
D ---------------------------------------------------|
A -0-0---0-5-3--5-3-2--------0-0---0-5-3--5-3-4-5-6--|
E -----3--------------3-0-3------3-------------------|

Chorus
G ---------------------------------------------------|
D ---------------------------------------------------| 2x
A ---------5p0---------5p0----------------------5p0--|
E -00-0000-----00-0000-----0-5--65x-53x--0-0000------|

play the 2end part of the verse 2x
Pre Verse
Verse
After Verse
Pre Chorus
Chorus 2x

During solo
Verse
Chorus 1x (at the end don't play A -5p0-)

Bridge
G -----------------------------------------|
D -----------------------------------------|
A ----------------------------------3-3-3--| 2x
E -65006500650065006500650065006500--------|

During second solo (this is very hard to hear feel free to correct me) 2x
G -------------------------------------------------------------------------|
D -------------------------------------------------------------------------|
A ----------------------3333333333333333-0000000000000000-3333333333333333-|
E -00000000000000000000----------------------------------------------------|

End
G ------------------------------------|
D ------------------------------------|
A -----------------3--3333-0-3333-----|
E -0--0000-3--3333----------------0~--|

That's it 
Feel free to correct me
Greetings ClosedRoad
comments
We did not receive enough feedback on this tab! Please rate:
print report bad tab
1 2 3 4 5
1 comment total.
0 reply
wangatangs wrote on April 28 2011, 03:42 pm

Nice tab! thanks!

I want to post or [tab]
guest
You may want to rate the tab now too:
select rating
Please do not post tabs as comments. Select "correction" instead!