Oops, an error
Loading. Please wait.

Blood Of Heroes Bass Tab

version 1
version 1

Whole song

Interactive

1,444 views 1 this week
no commentswrite comment
1 2 3 4 5
please rate
add to favorites
launch autoscroll
font size
0
reset
guitar tuner
Autoscroll
slow
fast
+/-
esc
set tempo
stop
Help us to improve Ultimate-Guitar.com Take our survey!
×
Author
Difficulty
intermediate
Tuning: Eb, Ab, Db, Gb.

[--------------------------]
[--------------------------]
[-0~--0-3~--3------------3-] x 1
[-------------1~--1-0~-----]

[-------------------------------|-----------------------------]
[-------------------------------|-----------------------------]
[-------3-----5-----------------|-------3-----5---------5-----] x 6
[-5-0-0---0-0---0-0-0-1-0-0-0-3-|-5-0-0---0-0---0-0-1-0---0-3-]

[-----------------------------|-------------------------------]
[-----------------------------|-----------------------2-------]
[-0-0-0-0-0-0-0---------------|-5-5-5-5-5-5-5-------2---5-3-2-] x 2
[---------------1-1-1-1-1-1-1-|----------------0--4-----------]

[-----------------------------]
[-----------------------------]
[-----------------------------] x 1
[-1-1-1-1-1-1-3-3-3-3-4-4-4-4-]

[-------------------------------|-----------------------------]
[-------------------------------|-----------------------------]
[-------3-----5-----------------|-------3-----5---------5-----] x 4
[-5-0-0---0-0---0-0-0-1-0-0-0-3-|-5-0-0---0-0---0-0-1-0---0-3-]

[-----------------------------|-------------------------------]
[-----------------------------|-----------------------2-------]
[-0-0-0-0-0-0-0---------------|-5-5-5-5-5-5-5-------2---5-3-2-] x 2
[---------------1-1-1-1-1-1-1-|----------------0--4-----------]

[------------------------]
[------------------------]
[-0-1-0------------------] x 8
[--------3-1--0-1-0--1-3-]

[--------------------------------]
[--------------------------------]
[-7-8-7--------------------------] x 1
[--------0-1-0--0-1-0--0-1-0--0~-]

[-------------------------------|-----------------------------]
[-------------------------------|-----------------------------]
[-------3-----5-----------------|-------3-----5---------5-----] x 2
[-5-0-0---0-0---0-0-0-1-0-0-0-3-|-5-0-0---0-0---0-0-1-0---0-3-]

[-----------------------------]
[-----------------------------]
[--------5------7-----------3-]x 4
[-7--5-2----5-2----2-3-2--2---]

[-------------------------------|-----------------------------]
[-------------------------------|-----------------------------]
[-------3-----5-----------------|-------3-----5---------5-----] x 2
[-5-0-0---0-0---0-0-0-1-0-0-0-3-|-5-0-0---0-0---0-0-1-0---0-3-]

[---------------------------------]
[---------------------------------]
[---------------------------------] x 1
[-1-1-1-1-1-1-3-3-3-3-4-4-4-4-5/0-]
Suggest correction
What's this?
You can suggest a correction to this tab. Community and Mods will review your correction and vote to approve or reject it.
comments
We did not receive enough feedback on this tab! Please rate:
print report bad tab
1 2 3 4 5
guest
You may want to rate the tab now too:
select rating
Please do not post tabs as comments. Select "correction" instead!