Oops, an error
Loading. Please wait.

Countdown To Extinction Bass Tab

version 1
version 1
14,945 views 12 this week
1 commentread comment
1 2 3 4 5
x 12
add to favorites
launch autoscroll
font size
0
reset
guitar tuner
Autoscroll
slow
fast
+/-
esc
set tempo
stop
Help us to improve Ultimate-Guitar.com Take our survey!
×
[Intro]

G|-----------------|-----------------|--------------------------|----------------|
D|-----------------|--3--------------|--------------------------|----------------|
A|-----------2--3--|-----------2--3--|--------------------2--3--|----------------|
E|--5--------------|-----------------|--3--3--3--3--3--3--------|----------------|

G|---------------------|--2--2--2--2--4/5/|--10--10--10--10--10--10--10--10--|----|
D|------3--2-----------|------------------|----------------------------------|----|
A|---------------3--0--|------------------|----------------------------------|----|
E|5--5-----------------|------------------|----------------------------------|----|

G|7--7--7--7--7--7--7--7\|--------------9--9--9--9\|------------------------------|
D|-----------------------|--5--5--5--5-------------|------------------------------|
A|-----------------------|-------------------------|------------------------------|
E|-----------------------|-------------------------|------------------------------|

G|-------------------------14--|--10--10--10--10--10--10--9h10--9--|--------------|
D|7--7--7--7--7--7--12h14------|-----------------------------------|--------------|
A|-----------------------------|-----------------------------------|--------------|
E|-----------------------------|-----------------------------------|--------------|

[Verse 1]

G|7--7--7--7--7--7--5h7--9--|--------------9--9--9--9--||--||---------------|-----|
D|--------------------------|--5--5--5--5--------------||--||*--------------|-----|
A|--------------------------|--------------------------||--||*------------3/|-----|
E|--------------------------|--------------------------||--||----5--5--5----|-----|

G|------------------------|--------------------------|----------------------------|
D|------------------------|--------------------------|----------------------------|
A|8--8--8--8--8--8--8--8--|--5--5--5--5--5--5--5--5--|----------------------------|
E|------------------------|--------------------------|----------------------------|

[Pre-Chorus]

G|----------------------||------------------------|-----------------------|-------|
D|---------------------*||------------------------|-----------------------|-------|
A|---------7--7--7--7--*||------------------------|--8-----8--8-----------|-------|
E|3--3--3---------------||---5-----5--5-----7--8--|-----------------7--8--|-------|

G|------------------------|-----------------------|-------------------------------|
D|------------------------|--------3--2-----------|-------------------------------|
A|------------------1--2--|-----------------3-----|-------------------------------|
E|3--3--3--3--3--3--------|--5--5--------------3--|-------------------------------|

[Chorus 1]

G|-------------------------------|--------------------------------|---------------|
D|-7--7--7--7--7--7--7--7--7--7--|--5--5--5--5--5--5--5--5--5--5--|---------------|
A|-------------------------------|--------------------------------|---------------|
E|-------------------------------|--------------------------------|---------------|

G|---------------------------------|--------------------------------|-------------|
D|---------------------------------|--------------------------------|-------------|
A|3--3--3--3--3--3--3--3--3--3--3--|--5--5--5--5--5--3--3--3--3--3--|-------------|
E|---------------------------------|--------------------------------|-------------|

G|------------------------------|-----------------------------|-------------------|
D|------------------------------|-----------------------------|-------------------|
A|------------------------------|--2--2--2--2--2--2--2--2--2--|-------------------|
E|5--5--5--5--5--5--5--5--5--5--|-----------------------------|-------------------|

G|------------------------------|--------------------------------|----------------|
D|------------------------------|--------------------------------|----------------|
A|3--3--3--3--3--3--3--3--3--3--|--5--5--5--5--5--3--3--3--3-----|----------------|
E|------------------------------|-----------------------------3--|----------------|

G|------------------------------|----------------------------|--------------------|
D|------------------------------|----------------------------|--------------------|
A|------------------------------|-------------------3--------|--------------------|
E|5--5--5--5--5--5--5--5--5--5--|--5\3--3--3--3--3-----3--3--|--------------------|

G|------------------------------|-----------------------------------|-------------|
D|------------------------------|-----------------------------------|-------------|
A|3--3--3--3--3--3--3--3--3--3--|--5--5--5--5--5--3--3--3--3--3--3--|-------------|
E|------------------------------|-----------------------------------|-------------|

G|------------------------------|-----------------------------|-------------|-----|
D|7--7--7--7--7--7--7--7--7--7--|--9--9--9--9--9--9--9--9--9--|-------------|-----|
A|------------------------------|-----------------------------|--12\8-----7\|-----|
E|------------------------------|-----------------------------|-------------|-----|

[Choruses 2, 3]

G|------------|-----------|-----------|---------------------------------|---------|
D|------------|--------7--|--5-----4--|---------------------------------|---------|
A|------------|-----------|-----------|---------------------------------|---------|
E|3-----0--6--|--5--------|-----------|---5--5--5--5--5--5--5--5--5--5--|---------|

G|--------------------------|--------------------------------|--------------------|
D|--------------------------|--------------------------------|--------------------|
A|-----------------3--------|--3--3--3--3--3--3--3--3--3--3--|--------------------|
E|5\3--3--3--3--3-----3--3--|--------------------------------|--------------------|

G|------------------------------|--------------------------------|----------------|
D|------------------------------|--------------------------------|----------------|
A|5--5--5--5--5--3--3--3--3--3--|--------------------------------|----------------|
E|------------------------------|--5--5--5--5--5--5--5--5--5--5--|----------------|

G|------------------------------|--------------------------------|----------------|
D|------------------------------|--------------------------------|----------------|
A|2--2--2--2--2--2--2--2--2--2--|--3--3--3--3--3--3--3--3--3--3--|----------------|
E|------------------------------|--------------------------------|----------------|

G|---------------------------------|--------------------------------|-------------|
D|---------------------------------|--------------------------------|-------------|
A|5--5--5--5--5--3--3--3--3--3-----|--------------------------------|-------------|
E|------------------------------3--|--5--5--5--5--5--5--5--5--5--5--|-------------|

G|---------------------------|-----------------------------------|----------------|
D|---------------------------|-----------------------------------|----------------|
A|------------------3--------|--3--3--3--3--3--3--3--3--3--3--3--|----------------|
E|3--3--3--3--3--3-----3--3--|-----------------------------------|----------------|

G|------------------------------|--------------------------------|----------------|
D|------------------------------|--7--7--7--7--7--7--7--7--7--7--|----------------|
A|5--5--5--5--5--3--3--3--3--3--|--------------------------------|----------------|
E|------------------------------|--------------------------------|----------------|

[Guitar Solo]

G|---------------------------|-------------|--------------||----------------|-----|
D|9--9--9--9--9--9--9--9--9--|-------------|--------------||*------------5--|-----|
A|---------------------------|--12\8-----7\|--------------||*---------------|-----|
E|---------------------------|-------------|--3-----0--6--||----5--5--------|-----|

[Spoken Part] (one hour from now)

G|----------------||-----------------------|------|-----|-----|-----------|-------|
D|---------------*||-----------------------|------|-----|-----|-----------|-------|
A|---------2--3--*||--5--5--5--5--5--5--5--|------|-----|-----|-----------|-------|
E|5--5------------||-----------------------|---5--|--3--|--2--|--1-----3--|-------|

G|---|-----|-------|-----|
D|---|-----|-------|-----|
A|---|-----|-------|--5--|
E|5--|--7--|--8\3--|-----|


Then repeat the riffs played under the verses for the harmony guitar part.
Then play the 3rd chorus. And that's about it.

************************************

| /  Slide up
| \  Slide down
| h  Hammer-on
| *  repeat

************************************
Suggest correction
comments
print report bad tab
1 comment total.
0 reply
gmbassist 10 Aug 20, 2007 12:01 PM

good tab u get 5 stars from me, the only thing is the pre-chorus is hard to figure out.

guest
You may want to rate the tab now too:
select rating
Wanna post a correction for this tab? Suggest correction