Oops, an error
Loading. Please wait.

Countdown To Extinction Bass Tab

version 2
version 2
11,861 views 21 this week
no commentswrite comment
1 2 3 4 5
x 6
add to favorites
launch autoscroll
font size
0
reset
guitar tuner
Autoscroll
slow
fast
+/-
esc
set tempo
stop
Help us to improve Ultimate-Guitar.com Take our survey!
×
Author
Difficulty
novice
Tabbed by Lucas

This is awesome song and really easy to play. in guitar solo is little bit mistakes but
rest of song should be correct. 

Megadeth
Countdown to extinction (mustaine, friedman, menza, ellefson)

Intro
|--------------------------------------------|
|---------3-------------------------3-2------|
|-0---2-3---2h3-------------2h3-0-0-----3-0--|
|---------------3-3-3-3-3-3------------------|

|-------------------10-10-10-10-10-10-9h10p9-7-7-7-7-7-7-9h10---
|.-7-7-7-7-7-7-9h10---------------------------------------------
|.--------------------------------------------------------------
|---------------------------------------------------------------

---------7/9-9-9-9--|
-5-5-5-5-----------.|
-------------------.|
--------------------|

Verse 4x
|-----------------------------------------------------------------------|
|.---------------------------------------------------------------------.|
|.-0-0-0-0-0-0-2h3-8-8-8-8-8-8-7h8p7-5-5-5-5-5-5-7h8---------5/7-7-7-7-.|
|----------------------------------------------------3-3-3-3------------|

Bridge
|-----------------------------------------------|
|---------3-33------------------------3-2-------|
|-0-00-2-3-----2h3-------------2h3-0-0-----3-0--|
|------------------3-3-3-3-3-3------------------|

Chorus1 4x                                          1st, 2nd, 3rd time
|----------------------------------|--------------------------------|
|.---------------------------------|.-------------------------------|
|.-0-0-0-0-0-0-0-0-2-2-2-2-2-2-2-2-|.-3-3-3-3-3-3-3-5-5-5-5-3-3-2-2-|
|----------------------------------|--------------------------------|
 4th time
-------------------------|
----------------7--5--4--|
---8-7-------------------|
-5-----3-0-6-5-----------|

Verse 4x
Bridge

Chorus2 4x                                   1st, 2nd, 3rd time
|-----------------------------------|--------------------------------|
|.----------------------------------|.-------------------------------|
|.--0-0-0-0-0-0-0-0-2-2-2-2-2-2-2-2-|.-3-3-3-3-3-3-3-5-5-5-5-3-3-2-2-|
|-----------------------------------|--------------------------------|
4th time
----------------|
----------------|
---8-7----------|
-5------3-0-6-5-|

guitar solo 
|---------------------------------------------|
|--5h7---5h7---5h7----------5h7--5h7---5h7----|
|-0-----0-----0-----5-55--0-----0----0-----5--|
|---------------------------------------------|

interlude
|---------------------------------|
|---------------------------------|
|----------------------2-------5--|
|-5---3---2---1--3---5-----3------|

Melody part 4x
|-----------------------------------------------------------------|
|.----------------------------------------------------------------|
|.-0-0-0-0-0-0-23-8-8-8-8-8-8-7-5-5-5-5-5-5-7-8---------5/7-7-7-7-|
|----------------------------------------------3-3-3-3------------|


 Chorus 4x                                         1st, 2nd, 3rd time
|-----------------------------------|--------------------------------|
|.----------------------------------|.-------------------------------|
|.--0-0-0-0-0-0-0-0-2-2-2-2-2-2-2-2-|.-3-3-3-3-3-3-3-5-5-5-5-3-3-2-2-|
|-----------------------------------|--------------------------------|
4th time
----------------|
----------------|
---8-7----------|
-5------3-0-6-5-|

Enjoy! and rate this please:)
Suggest correction
comments
print report bad tab
guest
You may want to rate the tab now too:
select rating
Wanna post a correction for this tab? Suggest correction