Oops, an error
Loading. Please wait.

Countdown To Extinction Bass Tab

version 3
version 3
6,994 views 21 this week
no commentswrite comment
1 2 3 4 5
excellent!
x 3
add to favorites
launch autoscroll
font size
0
reset
guitar tuner
Autoscroll
slow
fast
+/-
esc
set tempo
stop
Help us to improve Ultimate-Guitar.com Take our survey!
×
Author
Difficulty
intermediate
Megadeth

Countdown To Extinction


Intro: (00:00)
G|-----------------|-----------------|--------------------------|------------------------|
D|-----------------|--3~-------------|--------------------------|---------3--2-----------|
A|-----------2--3--|-----------2--3--|--------------------2--3--|------------------3--0--|
E|--5~-------------|-----------------|--3--3--3--3--3--3--------|---5--5-----------------|

G|--2--2--2--2--4/5/|-10-10-10-10-10-10-10-10-|-7-7-7-7-7-7-7-7\|---------9-9-9-9\|
D|------------------|-------------------------|-----------------|-5-5-5-5---------|
A|------------------|-------------------------|-----------------|-----------------|
E|------------------|-------------------------|-----------------|-----------------|

G|--------------------------14--|-10-10-10-10-10-10-9h10-9-|-7-7-7-7-7-7-5h7-9-|
D|-7--7--7--7--7--7--12h14------|--------------------------|-------------------|
A|------------------------------|--------------------------|-------------------|
E|------------------------------|--------------------------|-------------------|

G|--------------9--9--9--9--|
D|--5--5--5--5--------------|
A|--------------------------|
E|--------------------------|

1st Verse: (00:23)
G|---------------|-------------------------|--------------------------|
D|*--------------|-------------------------|--------------------------|
A|*------------3/|-8--8--8--8--8--8--8--8--|--5--5--5--5--5--5--5--5--|
E|----5--5--5----|-------------------------|--------------------------|

G|-----------------------|
D|----------------------*|
A|----------7--7--7--7--*|
E|-3--3--3---------------|

Pre-Chorus: (00:53)
G|------------------------|-----------------------|--------------------|------------------|
D|------------------------|-----------------------|--------------------|-------3--2-------|
A|------------------------|--8-----8--8-----------|--------------1--2--|-------------3----|
E|---5-----5--5-----7--8--|-----------------7--8--|-3-3-3-3-3-3--------|-5--5-----------3-|

1st Chorus: (01:01)
G|-------------------------------|---------------------|-----------------------|
D|-7--7--7--7--7--7--7--7--7--7--|-5-5-5-5-5-5-5-5-5-5-|-----------------------|
A|-------------------------------|---------------------|-3-3-3-3-3-3-3-3-3-3-3-|
E|-------------------------------|---------------------|-----------------------|

G|---------------------|---------------------|--------------------|
D|---------------------|---------------------|--------------------|
A|-5-5-5-5-5-3-3-3-3-3-|---------------------|-2-2-2-2-2-2-2-2-2--|
E|---------------------|-5-5-5-5-5-5-5-5-5-5-|--------------------|

G|---------------------|-----------------------|---------------------|---------------------|
D|---------------------|-----------------------|---------------------|---------------------|
A|-3-3-3-3-3-3-3-3-3-3-|-5-5-5-5-5-3-3-3-3-----|---------------------|-------------3-------|
E|---------------------|--------------------3--|-5-5-5-5-5-5-5-5-5-5-|-5\3-3-3-3-3----3-3--|

G|---------------------|-----------------------|----------------------|
D|---------------------|-----------------------|-7-7-7-7-7-7-7-7-7-7--|
A|-3-3-3-3-3-3-3-3-3-3-|-5-5-5-5-5-3-3-3-3-3-3-|----------------------|
E|---------------------|-----------------------|----------------------|

G|-------------------|-----------|
D|-9-9-9-9-9-9-9-9-9-|-----------|
A|-------------------|-12\8----7\|
E|-------------------|-----------|

Verse (01:34)
Pre-Chorus (02:04)
2nd Chorus: (02:12)
G|----------|----------|----------|---------------------|----------------------|
D|----------|-------7--|-5-----4--|---------------------|----------------------|
A|----------|----------|----------|---------------------|-----------------3----|
E|-3----0-6-|-5--------|----------|-5-5-5-5-5-5-5-5-5-5-|-5\3-3-3-3-3----3--3--|

G|----------------------|---------------------|---------------------|
D|----------------------|---------------------|---------------------|
A|--3-3-3-3-3-3-3-3-3-3-|-5-5-5-5-5-3-3-3-3-3-|---------------------|
E|----------------------|---------------------|-5-5-5-5-5-5-5-5-5-5-|

G|---------------------|---------------------|------------------------|---------------------|
D|---------------------|---------------------|------------------------|---------------------|
A|-2-2-2-2-2-2-2-2-2-2-|-3-3-3-3-3-3-3-3-3-3-|-5-5-5-5-5-3-3-3-3-3----|---------------------|
E|---------------------|---------------------|----------------------3-|-5-5-5-5-5-5-5-5-5-5-|

G|----------------------|-----------------------|---------------------|---------------------|
D|----------------------|-----------------------|---------------------|-7-7-7-7-7-7-7-7-7-7-|
A|-----------------3----|-3-3-3-3-3-3-3-3-3-3-3-|-5-5-5-5-5-3-3-3-3-3-|---------------------|
E|-3-3-3-3-3-3----3--3--|-----------------------|---------------------|---------------------|

Interlude: (02:42)
G|-------------------|----------|---------|----------------|------------------|
D|-9-9-9-9-9-9-9-9-9-|----------|---------|*------------5--|-----------------*|
A|-------------------|-12\8---7\|---------|*---------------|-----------2--3--*|
E|-------------------|----------|-3---0-6-|----5--5--------|--5--5------------|

Breakdown/Speaking: (About an Hour From Now) (02:56)
G|------------------------|------|-----|-----|-----------|----|-----|-------|-----|
D|------------------------|------|-----|-----|-----------|----|-----|-------|-----|
A|---5--5--5--5--5--5--5--|------|-----|-----|-----------|----|-----|-------|--5--|
E|------------------------|---5--|--3--|--2--|--1-----3--|-5--|--7--|--8\3--|-----|

Repeat Verse (03:11) then…

Play the 2nd Chorus again (03:41) for the last chorus and that’s all.
Suggest correction new What's this?
You can suggest a correction to this tab. Community and Mods will review your correction and vote to approve or reject it.
comments
We did not receive enough feedback on this tab! Please rate:
print report bad tab
1 2 3 4 5
guest
You may want to rate the tab now too:
select rating
Please do not post tabs as comments. Select "correction" instead!