Oops, an error
Loading. Please wait.

Crown Of Worms Bass Tab

version 1
version 1

Whole song

Interactive

496 views 1 this week
no commentswrite comment
1 2 3 4 5
please rate
add to favorites
launch autoscroll
font size
0
reset
guitar tuner
Autoscroll
slow
fast
+/-
esc
set tempo
stop
Help us to improve Ultimate-Guitar.com Take our survey!
×
This tab is from tTabs, but the tabber didn't register or leave his or her email.

Riff 1
G------------------------------------------------------------------------|
D------------------------------------------------------------------------|
A-2----------------------------------------------------------------------|
E----2-1-0---------------------------------------------------------------|

Riff 2
G--------------------------------------------------------------|
D--------------------------------------------------------------|
A----------------2-2-2-4-4-4----------------2-2-2--------------|
E--4-4-4-4-4-4----------------4-4-4-4-4-4---------2-2-2--------|

G---------------------------------------------------------------|
D---------------------------------------------------------------|
A-----------------2-2-2-4-4-4----------------2------------------|
E--4-4-4-4-4-4----------------4-4-4-4-4-4----2-1-0-1-2----------|

Riff 3
G---------------------------------------------------------------------------|
D---------------------------------------------------------------------------|
A----------------------2-2-2-2-2-2-2-2--------------------------------------|
E--4-4-4-4-4-4-4-4---------------------2-2-2-2-2-2-2-2-0-0-0-0-5-5-5-5------|

G---------------------------------------------------------------------------|
D---------------------------------------------------------------------------|
A----------------------2-2-2-2-2-2-2-2----------------------4-4-4-4-2-2-2-2-|
E--4-4-4-4-4-4-4-4----------------------2-2-2-2-2-2-2-2---------------------|

Riff 4
G---------------------------------------------------------------------------|
D---------------------------------------------------------------------------|
A---------------------------------------------------------------------------|
E-4-4-4-4-4-4-4-4---2-2-2-2-2-2-2-2--1-1-1-1-1-1-1-1---0-0-0-0-0-0-0-0------|

Riff 5
G---------------------------------------|
D---------------------------------------|
A--------2-2-2—4-4-4--------------------|
E-4-4-4------------------2-2-2-0-0-0----|

Riff 6
G---------------------------------------------------------------------------|
D--------------------------------------------4--4--4--4-------------6--6--6-|
A--------------6---6---6---6--2-2-2-2--2--2--2--2---4-4-4-4-4--4--4--4------|
E-4-4-4-4--4---4---4---4----------------------------------------------------|

G---------------------------|
D-6-------------------------|
A---------------------------|
E--4-4-4-4-4-4-4-4----------|


Order:
Riff 1 x 1
Riff 2 x 1
Riff 3 x 2
Riff 4 x 2
Riff 2 x 1
Riff 3 x 2
Riff 4 x 2
Riff 5 x 1
Riff 6 x 2
Riff 3 x 2
Suggest correction
Give kudos to tab author, rate the tab!
1 2 3 4 5
comments
print report bad tab
guest
You may want to rate the tab now too:
select rating
Wanna post a correction for this tab? Suggest correction