Oops, an error
Loading. Please wait.

Dawn Patrol Bass Tab

version 1
version 1

Whole song

Interactive

65,330 views 159 this week
6 commentsread comments
1 2 3 4 5
excellent!
x 47
add to favorites
launch autoscroll
font size
0
reset
guitar tuner
Autoscroll
slow
fast
+/-
esc
set tempo
stop
Help us to improve Ultimate-Guitar.com Take our survey!
×
Author
Dawn Patrol - Megadeth

By: Jon Craven (i_apathy@hotmail.com)
For questions, comments, feedback, an outline of the timing, write the above
address.

Note: -Played with a pick.

(4/4)(75 bpm)
Standard tuning


[Intro pt.1]

G|-----|
D|-----|
A|-----|
E|12\--|


[Intro pt.2] (verse/outro pt.1)

G|---------------------|----------------------|---------------------|---------------2-0-|
D|---------------------|----------8h9---7h8---|---------------------|-------------------|
A|5h7--7-7-7-5h8--8-8-8|5h7--7-7-7---9p8---8p7|5h7--7-7-7-5h8--8-8-8|5h7--7-7\-0-1------|
E|---0----------0------|---0------------------|---0----------0------|---0---------3-----|

G|---------------------|----------------------|---------------------|-------------------|
D|---------------------|----------8h9---7h8---|---------------------|-------------------|
A|5h7--7-7-7-5h8--8-8-8|5h7--7-7-7---9p8---8p7|5h7--7-7-7-5h8--8-8-8|5h7--7-7\-3-2-0----|
E|---0----------0------|---0------------------|---0----------0------|---0------------0--|


[Verse] (x2)

[Outro pt.1]

[Outro pt.2] 

(1:42)(hold till end)

G|------------------|
D|------------------|
A|------------------|
E|(0)-*-*-*-*-*-*-*-|


************************************

| R   quarter rest
| \   slide down
| h   hammer-on
| p   pull-off
|(#)  holding from last riff

************************************
Suggest correction
comments
print report bad tab
6 comments total. Showing first comments.
0 reply
80smetalpro0987 10 wrote on March 18 2007, 10:40 am

it looks ok..........

+3 reply
Fender6 628 wrote on December 28 2007, 09:57 pm

this is excellent!!!!!!!!!!!!!!!!!!!

+3 reply
DeathzMetal666 299 wrote on October 29 2008, 07:02 pm

YES perfect! thanks for tab this out

guest
You may want to rate the tab now too:
select rating
Please do not post tabs as comments. Select "correction" instead!