Oops, an error
Loading. Please wait.

Dawn Patrol Bass Tab

version 2
version 2

Whole song

Interactive

8,782 views 15 this week
no commentswrite comment
1 2 3 4 5
excellent!
x 4
add to favorites
launch autoscroll
font size
0
reset
guitar tuner
Tab Pro tools
  • play this tab
  • loop segment
  • change instrument
  • show fretboard
  • metronome
×
Best way to learn
"Dawn Patrol"
Autoscroll
slow
fast
+/-
esc
set tempo
stop
Contributor
#----------------------------------PLEASE NOTE---------------------------------#
#This file is the author's own work and represents their interpretation of the #
#song. You may only use this file for private study, scholarship, or research. #
#------------------------------------------------------------------------------#

DAWN PATROL
As recorded by Megadeth
(From the 1990 Album RUST IN PEACE)

Transcribed by /\X/\M
	

Words and Music by Dave Mustaine & Dave Ellefson

Gtr I (E A D G) - 'Bass'

                  Intro
  Slow Rock Q=72
 4/4
  Gtr I
  H    Q   Q       S S E E S S S S E E S S
|--------------||--------------------------|
|--------------||o-------------------------|
|--------------||o-5h7---7-7-7-5h8---8-8-8-|
|---------12\--||------0-----------0-------|


  S S E E S S S S S S S S S S   S S E E S S S S E E S S
|-----------------------------|-------------------------|
|-------------8h9-----7h8-----|-------------------------|
|-5h7---7-7-7-----9s8-----8s7-|-5h7---7-7-7-5h8---8-8-8-|
|-----0-----------------------|-----0-----------0-------|


                                                  Verse 1&2
  1.                       2.
  S S E E E  S S E E E     S S E E E  S S E Q      S S E E S S S S E E S S
|------------------2-0--||---------------------||---------------------------|
|----------------------o||---------------------||o--------------------------|
|-5h7---7-7\-1-0-------o||-5h7---7-7\-3-2-0----||o-5h7---7-7-7-5h8---8-8-8--|
|-----0----------3------||-----0------------0--||------0-----------0--------|


  S S E E S S S S S S S S S S
|-----------------------------|
|-------------8h9-----7h8-----|
|-5h7---7-7-7-----9s8-----8s7-|
|-----0-----------------------|


  S S E E S S S S E E S S   S S E E E  S S E E E
|-------------------------|------------------2-0---||
|-------------------------|-----------------------o||
|-5h7---7-7-7-5h8---8-8-8-|-5h7---7-7\-1-0--------o||
|-----0-----------0-------|-----0----------3-------||


  S S E E S S S S E E S S   S S E E S S S S S S S S S S
|-------------------------|-----------------------------|
|-------------------------|-------------8h9-----7h8-----|
|-5h7---7-7-7-5h8---8-8-8-|-5h7---7-7-7-----9s8-----8s7-|
|-----0-----------0-------|-----0-----------------------|


  S S E E S S S S E E S S
|--------------------------|
|--------------------------|
|-5h7---7-7-7-5h8---8-8-8--|
|-----0-----------0--------|


                         Verse 3&4
  S S E E E  S S E Q      S S E E S S S S E E S S
|---------------------||--------------------------|
|---------------------||o-------------------------|
|-5h7---7-7\-3-2-0----||o-5h7---7-7-7-5h8---8-8-8-|
|-----0------------0--||------0-----------0-------|


  S S E E S S S S S S S S S S
|------------------------------|
|-------------8h9-----7h8------|
|-5h7---7-7-7-----9s8-----8s7--|
|-----0------------------------|


  S S E E S S S S E E S S   S S E E E  S S E E E     S S E E S S S S E E S S
|-------------------------|------------------2-0--||--------------------------|
|-------------------------|----------------------o||--------------------------|
|-5h7---7-7-7-5h8---8-8-8-|-5h7---7-7\-1-0-------o||-5h7---7-7-7-5h8---8-8-8--|
|-----0-----------0-------|-----0----------3------||-----0-----------0--------|


  S S E E S S S S S S S S S S
|-----------------------------|
|-------------8h9-----7h8-----|
|-5h7---7-7-7-----9s8-----8s7-|
|-----0-----------------------|


  S S E E S S S S E E S S   S S E E E  S S E Q
|-------------------------|----------------------*|
|-------------------------|----------------------*|
|-5h7---7-7-7-5h8---8-8-8-|-5h7---7-7\-3-2-0-----*|
|-----0-----------0-------|-----0------------0---*|



Duration Legend
---------------
W - whole; H - half; Q - quarter; E - 8th; S - 16th; T - 32nd; X - 64th; a - acciaccatura
+ - note tied to previous; . - note dotted; .. - note double dotted
Uncapitalized letters represent notes that are staccato (1/2 duration)
Irregular groupings are notated above the duration line
Duration letters will always appear directly above the note/fret number it represents the
duration for.  Duration letters with no fret number below them represent rests.  Multi-
bar rests are notated in the form Wxn, where n is the number of bars to rest for.  Low
melody durations appear below the staff

Tablature Legend
----------------
 h   - hammer-on
 p   - pull-off
 b   - bend
 pb  - pre-bend
 r   - bend release (if no number after the r, then release immediately)
 /\  - slide into or out of (from/to "nowhere")
 s   - legato slide
 S   - shift slide
 - natural harmonic
[n]  - artificial harmonic
n(n) - tapped harmonic
 ~   - vibrato
 tr  - trill
 T   - tap
 TP  - trem. picking
 PM  - palm muting
\n/  - tremolo bar dip; n = amount to dip
 \n  - tremolo bar down
 n/  - tremolo bar up
/n\  - tremolo bar inverted dip
 =   - hold bend; also acts as connecting device for hammers/pulls
 <> - volume swell (louder/softer)
 x   - on rhythm slash represents muted slash
 o   - on rhythm slash represents single note slash

Misc Legend
-----------
 |  - bar
||  - double bar
||o - repeat start
o|| - repeat end
*|  - double bar (ending)
 :  - bar (freetime)
 $  - Segno
 &  - Coda
Tempo markers -  = BPM(8/16=s8/s16), where s8 = swing 8ths, s16 = swing 16ths

comments
print report bad tab
I want to post or [tab]
guest
You may want to rate the tab now too:
select rating
Please do not post tabs as comments. Select "correction" instead!