Oops, an error
Loading. Please wait.

Devils Island Bass Tab

version 1
version 1

Whole song

Interactive

6,965 views 21 this week
no commentswrite comment
1 2 3 4 5
accurate
x 7
add to favorites
launch autoscroll
font size
0
reset
guitar tuner
Tab Pro tools
  • play this tab
  • loop segment
  • change instrument
  • show fretboard
  • metronome
Autoscroll
slow
fast
+/-
esc
set tempo
stop
Difficulty
intermediate
Artist: Megadeth
Song: Devil's island
Tuning: Standard

Key:
Hammer on: H
Pull off: P


                       Devil's Island Bass Tab


Intro:
G------------------------------------------------|
D------------------------------------------------|
A------2---1-----2-0----------2---1-----2-0------|  Repeat 12x
E--0------------------3-2-0------------------3-2-|

On the last open E, after the 12th time do this until verse:
E----------------------|
D----------------------|
A----------------------|
E--0-0-0-0-0-0-0-0-0-0-|

Verse:
E---------------------------------------------------------------------|
D---------------------------------------------------------------------|
A---------------------------------------------------------------------|
E-0--000-000-000-001-111-111-111-112-222-222-222-223-333-333-333-33---|


Chorus:
G---------------------------------------|
D---------------------------------------|
A----------------------5------7---------|
E--0--3--0--000-000-00---0-00-----------|

After first chorus do this and then go back in to the verse:
G-----------------|
D-----------------|
A---2--1----------|
E---------0-------|

After second chorus there are a couple of things you do before the Guitar solo:
G-------------------------------------------|
D-------------------------------------------|
A-------------------------------------1h2---| repeat as necessary
E--0-3--0-000-000-00-3p2-0-000-000-00-------| {Use this riff as outro and end
                                              on an f#}


After that riff do this:
G---------------------------------------------|
D---------------------------------------------|
A--------------3-2----------------------------|
E--2-------2-------3-2------2----3-2--0-2-----|

After that riff you do this:
G----------------------------------------------------------------------------|
D----------------------------------------------------------------------------|
A--------------------------3-2-----------------------------------------------|
E-2-222-222-222-222-222-22-----3-2--222-222-222-222-222-222-22--3--2--0-2----|

At one point{not entirely sure when}the verse riff is played behind the solo too. From
keep playing the verse, go into the chorus and then repeat some of these at the end. I
recommend listening to the song a few times through just to make sure you have the 
order of all the riffs. Playing along with them wouldn't be a bad idea either. i
you find this useful, i worked really hard on it......
comments
print report bad tab
I want to post or [tab]
guest
You may want to rate the tab now too:
select rating
Please do not post tabs as comments. Select "correction" instead!