Oops, an error
Loading. Please wait.

Diadems power

version 2
version 2

Whole song

632 views 1 this week
2 commentsread comments
1 2 3 4 5
3 more votes to show rating
add to favorites
guitar tuner
Autoscroll
slow
fast
+/-
esc
set tempo
stop
File Format
Filesize

.ptb
15 Kb
"Diadems"
demo version
Play now

or get full version for Free

×
Get full version now!
Learn and play this song
in Tab Pro
Try for free

or get $10 off Welcome Bonus

Get welcome bonus
Get access to Tab Pro version of “Diadems”!
Tab Pro is a premium guitar tab service, available on PC, Mac, iOS and Android
TRY FOR FREE
Your download will start in 7 seconds
×
Like this song? We have more! Follow us on Facebook for daily tips, lessons and other guitar-related content.
To download “Diadems” Power tab click button below
Please note that you must have Power Tab software installed on your
computer in order to view this file.
Suggest correction
Give kudos to tab author, rate the tab!
1 2 3 4 5
comments
report bad tab
2 comments total.
+1 reply
mageXsessho 62 Aug 06, 2008 03:30 PM

i feel like its way off.
especially the main riff/ intro.

0 reply
mageXsessho 62 Aug 06, 2008 03:46 PM

Q=98
Gtrs I, II
Q a E E S S E E E Q a E E S S E E E
||---------7-----------|--------------------|
||o----7h8---8p7-------|--------------------|
||-----------------7---|--------7-----------|
||---------------9---7-|----7h9---9p7---5---|
||o--------------------|--------------9---7-|
||--0------------------|-0------------------|
W W


Q E E S S E E E Q E E S S E E E 3x
|-----0---------------|-----0---------------||
|-----0---------------|-----0--------------o||
|---------------------|---------------------||
|-------------5-2-----|-------------5-2-----||
|---------4-5------2--|---------4-5------2-o||
|-0-----0---------(0)-|-0-----0---------(0)-||
Q. H +E Q. H +E


Q a E E S S E E E Q a E E S S E E E
|--------7-----------|--------------------|
|----7h8---8p7-------|--------------------|
|----------------7---|--------7-----------|
|--------------9---7-|----7h9---9p7---5---|
|--------------------|--------------9---7-|
|-0------------------|-0------------------|
W W


Q E E S S E E E Q E E S S E E E
|-----0---------------|-----0-------------|
|-----0---------------|-----0-------------|
|---------------------|-------------------|
|-------------5-2-----|-------------------|
|---------4-5------2--|-------------2---0-|
|-0-----0---------(0)-|-0-----0-2h3---2---|
Q. H +E Q. H

guest