Oops, an error
Loading. Please wait.

Dialectic Chaos Bass Tab

version 1
version 1

Whole song

Interactive

1,850 views 1 this week
no commentswrite comment
1 2 3 4 5
please rate
add to favorites
launch autoscroll
font size
0
reset
guitar tuner
Autoscroll
slow
fast
+/-
esc
set tempo
stop
Help us to improve Ultimate-Guitar.com Take our survey!
×
Author
Difficulty
rondizzle 287
intermediate
Artist: Megadeth
Song: Dialectic Chaos
Album: Endgame
Tempo: 168
8th Note Triplet Feel


Intro: (x1)
      H.           Q       H.           Q     3x  W                   W                 
G||---------------------|---------------------||-------------------|-------------------|
D||*--------------------|--------------------*||-------------------|-------------------|
A||---------------------|---------------------||-------------------|-------------------|
E||*--5------------3----|---------------3----*||--1----------------|--3----------------|
B||---------------------|--1------------------||-------------------|-------------------|


    H.           Q       H.           Q     3x  W                   H.             Q      
|---------------------|---------------------||-------------------|-----------------------|
|*--------------------|--------------------*||-------------------|-----------------------|
|---------------------|---------------------||-------------------|-----------------------|
|*--5------------3----|---------------3----*||--1----------------|--3------------/17\----|
|---------------------|--1------------------||-------------------|-----------------------|

Riff A: (x1)
          |--3--|                       |--3--|                      |--3--|               
    E  E  E  E  E  E  E  E  E     E  E  E  E  E  E  E  Q       E  E  E  E  E  E  E  E  E   
|------------------------------|----------------------------|-----------------------------|
|*-----------------------------|----------------------------|-----------------------------|
|------------------------------|--3--3--3--3--3--3--3-------|-----------------------------|
|*--5--5--5--5--5--5--5--3--3--|-----------------------3----|--5--5--5--5--5--5--5--3--3--|
|------------------------------|----------------------------|-----------------------------|


        |--3--|  |----3----|             |--3--|                       |--3--|              
  E  E  E  E  E  Q    Q    Q       E  E  E  E  E  E  E  E  E     E  E  E  E  E  E  E  Q     
--------------------------------|-----------------------------|----------------------------|
--------------------------------|-----------------------------|----------------------------|
--3--3--3--3--3--5----3----5----|-----------------------------|--3--3--3--3--3--3--3-------|
--------------------------------|--5--5--5--5--5--5--5--3--3--|-----------------------3----|
--------------------------------|-----------------------------|----------------------------|


        |--3--|        |--3--|           |--3--|                
  E  E  E  E  E  E  E  E  E  E     E  E  E  E  E  E  E    Q     
--------------------------------|------------------------------|
--------------------------------|------------------------------|
--------------------------------|------------------------------|
--1--1--1--1--1--1--1--0--1--2--|--3--3--3--3--3--3--3--1g3----|
--------------------------------|------------------------------|

Riff B: (x2)
        |--3--|        |--3--|           |--3--|        |--3--|   
  E  E  E  E  E  E  E  E  E  E     E  E  E  E  E  E  E  E  E  E   
--------------------------------|--------------------------------|
--------------------------------|--------------------------------|
--------------------------------|--------------------------------|
--2--2--2--2--2--2--2--2--2--2--|--2--2--2--2--2--2--2--2--2--2--|
--------------------------------|--------------------------------|


  |--3--|  |--3--|        |--3--|           |--3--|        |--3--|   
  E  E  E  E  E  E  E  E  E  E  E     E  E  E  E  E  E  E  E  E  E   
-----------------------------------|--------------------------------|
-----------------------------------|--------------------------------|
-----------------------------------|--------------------------------|
--5--2--2--2--2--2--2--2--2--2--2--|--2--2--2--2--2--2--0-----0--2--|
-----------------------------------|-----------------------4--------|


        |--3--|        |--3--|           |-3|           |--3--|           |--3--|        |-3|     
  E  E  E  E  E  E  E  E  E  E     E  E  E  Q     E  E  E  E  E     E  E  E  E  E  E  E  E  Q     
--------------------------------|--------------------------------|-------------------------------|
--------------------------------|--------------------------------|-------------------------------|
--------------------------------|--------------------------2-----|-------------------------------|
--4--4--4--4--4--4--4--4--4--4--|--4--2--4--4----/4--4--2-----4--|--5--5--5--5--5--5--5--5--5----|
--------------------------------|--------------------------------|-------------------------------|


  |--3--|  |--3--|  |--3--|  |--3--|   
  E  E  E  E  E  E  E  E  E  E  E  E   
--------------------------------------|
--------------------------------------|
--2--2--2--2--2--2--2--2--2--2--1-----|
-----------------------------------3--|
--------------------------------------|

Riff A: (x2)

Riff C: (x1)
        |--3--|                       |--3--|                       |--3--|               
  E  E  E  E  E  E  E  E  E     E  E  E  E  E  E  E  E  E     E  E  E  E  E  E  E  E  E   
-----------------------------|-----------------------------|-----------------------------|
-----------------------------|-----------------------------|-----------------------------|
--5--5--5--5--5--5--5--3--3--|-----------------------3--3--|--5--5--5--5--5--5--5--3--3--|
-----------------------------|--1--1--1--1--1--1--1--------|-----------------------------|
-----------------------------|-----------------------------|-----------------------------|


        |--3--|  |----3----|             |--3--|               
  E  E  E  E  E  Q    Q    Q       E  E  E  E  E  E  E  E  E   
--------------------------------|-----------------------------|
--------------------------------|-----------------------------|
----------------------3----3----|--5--5--5--5--5--5--5--3--3--|
--1--1--1--1--1--1--------------|-----------------------------|
--------------------------------|-----------------------------|



        |--3--|                       |--3--|        |--3--|           |--3--|        |--3--|   
  E  E  E  E  E  E  E  E  E     E  E  E  E  E  E  E  E  E  E     E  E  E  E  E  E  E  E  E  E   
-----------------------------|--------------------------------|--------------------------------|
-----------------------------|--------------------------------|--------------------------------|
-----------------------3--3--|--1--1--1--1--1--1--1--1--1--1--|--3--3--3--3--3--3--3--3--3--3--|
--1--1--1--1--1--1--1--------|--------------------------------|--------------------------------|
-----------------------------|--------------------------------|--------------------------------|

Riff D: (x1)

        |--3--|                     |--3--|             
  E  E  E  E  E  Q    Q       E  E  E  E  E  Q    Q     
---------------------------|---------------------------|\
---------------------------|---------------------------| \
---------------------------|---------------------------|  } x3
---------------------------|--3--3--3--3--3--3---------| /
--5--5--5--5--5--5----3----|----------------------3----|/

        |--3--|        |--3--|           |--3--|        |--3--|   
  E  E  E  E  E  E  E  E  E  E     E  E  E  E  E  E  E  E  E  E   
--------------------------------|--------------------------------|
--------------------------------|--------------------------------|
--3--3--3--3--3--3--3--3--3--3--|--------------------------------|
--------------------------------|--------------------------------|
--------------------------------|--3--3--3--3--3--3--3--3--3--3--|

Riff B: (x2)
Second time only play first 5 bars then this:


        |--3--|        |--3--|           |--3--|        |--3--|     |----3----|    |----3----|
  E  E  E  E  E  E  E  E  E  E     E  E  E  E  E  E  E  E  E  E     Q    Q    Q    Q    Q    Q 
--------------------------------|--------------------------------|-------------------------------|
--------------------------------|--------------------------------|-------------------------------|
--------------------------------|--------------------------------|--2----2----2----3----2----0---|
--4--4--4--4--4--4--4--4--4--4--|--5--5--5--5--5--5--5--5--5--5--|-------------------------------|
--------------------------------|--------------------------------|-------------------------------|

  W                 
-------------------||
-------------------||
-------------------||
--2----------------||
-------------------||

Duration Legend
---------------
W - whole
H - half
Q - quarter
E - 8th
S - 16th
T - 32nd
X - 64th
. - note dotted
|-n-|  - n-tuplets


Tablature Legend
----------------
L - tied note
x - dead note
g - grace note
(n) - ghost note
> - accentuded note
NH - natural harmonic
AH - artificial harmonic
TH - tapped harmonic
SH - semi harmonic
PH - pitch harmonic
h - hammer on
p - pull off
b - bend
br - bendRelease
pb - preBend
pbr - preBendRelease
brb - bendReleaseBend
\n/ - tremolo bar dip
\n - tremolo bar dive
-/n - tremolo bar Release up
/n\ - tremolo bar inverted dip
/n - tremolo bar return
-\n - tremolo bar Release down
S - shift slide
s - legato slide
/ -  slide into from below or out of upwards
\ -  slide into from above or out of downwards
~ - vibrato
W - wide vibrato
tr - trill
TP - tremolo picking
T - tapping
S - slap
P - pop
< - fade in
^ - brush up
v - brush down
Suggest correction
What's this?
You can suggest a correction to this tab. Community and Mods will review your correction and vote to approve or reject it.
comments
We did not receive enough feedback on this tab! Please rate:
print report bad tab
1 2 3 4 5
guest
You may want to rate the tab now too:
select rating
Please do not post tabs as comments. Select "correction" instead!