Oops, an error
Loading. Please wait.

Die Dead Enough Bass Tab

version 1
version 1

Whole song

Interactive

1,944 views 3 this week
no commentswrite comment
1 2 3 4 5
accurate
x 3
add to favorites
launch autoscroll
font size
0
reset
guitar tuner
Autoscroll
slow
fast
+/-
esc
set tempo
stop
Help us to improve Ultimate-Guitar.com Take our survey!
×
Contributor
Andrew Zara 3,572
Band- Megadeth
Song- Die Dead Enough

Gtr I (E A D G) - 'Jimmy Sloas'
Gtr II (E A D G) - 'Strings'

 Intro
  Q=137
 4/4
  Gtr I
  Wx4          W          W          W           W
|------------|----------|----------|----------|-------|
|------------|----------|----------|----------|-------|
|------------|----------|----------|-2--------|-------|
|------------|-2--------|-2--------|----------|--3----|
|
| Gtr II
| Wx4          W          W          W           W
|------------|----------|----------|----------|-------|
|------------|----------|----------|-9--------|-------|
|------------|-9--------|-9--------|----------|-10----|
|------------|----------|----------|----------|-------|


  W           W           W           W
|----------|-----------|-----------|-------|
|----------|-----------|-----------|-------|
|-2--------|--4--------|--5--------|-------|
|----------|-----------|-----------|--3----|
|
| W           W           W           W
|----------|-----------|-----------|-------|
|-9--------|-11--------|-12--------|-------|
|----------|-----------|-----------|-10----|
|----------|-----------|-----------|-------|


   E  E E  E  E E  E E    E  E E  E  E E  E E
|----------------------|----------------------|
|----------------------|----------------------|
|--2--2-2--2----4----2-|--5--5-5--5----5----4-|
|----------------------|----------------------|
|
|  Q.      Q.      Q      Q.      Q.      Q
|-19------18-----------|-21------19-----------|
|-----------------16---|-----------------21---|
|----------------------|----------------------|
|----------------------|----------------------|


   E E E E E E E E   E E E E E E E E   E E E E E E E E
|------------------|-----------------|-------------------|
|------------------|-----0---2-0-----|-------------------|
|--2-2-2-2---4---2-|---2---2-----2---|---------0-1-2-----|
|------------------|-3-------------3-|-2-2-2-2-------3---|
|
|  >
|  W                 W                 W
|-18---------------|-----------------|-------------------|
|------------------|-----------------|-------------------|
|------------------|-----------------|-------------------|
|------------------|-----------------|-------------------|


   Verse
    $
    Gtr I
    E E E E E E E E   E E E E E E E E   E E E E E E E E   E E E E E E E E
||------------------|-----------------|-----------------|-------------------||
||o-----------------|-----------------|-----------------|------------------o||
||o---------0-1-2---|---------0-1-2---|---------0-1-2---|---------0-1-2----o||
||--0-0-0-0-------3-|-0-0-0-0-------3-|-0-0-0-0-------3-|-0-0-0-0-------3---||


   Chorus
    E E E E E E E E   +E  E E E E E E E
||------------------|-------------------|
||o-----------------|-------------------|
||o-2-2-2-2-2-2-2-0-|-(0)-0-0-0-0-0-0---|
||------------------|-----------------3-|


  +E  E E E E E E E   +E  E E E E E E E
|-------------------|-------------------|
|-------------------|-------------------|
|-------------------|-----------------2-|
|-(3)-3-3-3-3-3-3-0-|-(0)-0-0-0-0-0-0---|


  +E  E E E E E E E   +E  E E E E E E E
|-------------------|-------------------|
|-------------------|-------------------|
|-(2)-2-2-2-2-2-2-0-|-(0)-0-0-0-0-0-0---|
|-------------------|-----------------3-|


 1.
  +E  E E E E E E E   +E  E E E E E E E
|-------------------|---------------------||
|-------------------|--------------------o||
|-------------------|--------------------o||
|-(3)-3-3-3-3-3-3-0-|-(0)-0-0-0-0-0-0-0---||


  2.
         To Coda                          D.S. al Coda
  E E E E E E E E   +E  E E E E E E E   E E E E E E E E
|-----------------|-------------------|-----------------|
|-----------------|-------------------|-----------------|
|-----------------|-------------------|---------0-1-2---|
|-3-3-3-3-3-0-2-3-|-(3)-3-3-3-3-3-3-3-|-3-3-3-3-------3-|


                                         Bridge
  &
  +E  E E E E E E E   E E E E E E E E     E E E E E E E E   +E  E E E E E E E
|-------------------|-----------------||------------------|-------------------|
|-------------------|-----------------||o-2-2-2-2-2-2-2---|-------------------|
|-------------------|-----------------||o---------------2-|-(2)-2-2-2-2-2-2-5-|
|-(3)-3-3-3-3-3-3-3-|-3-3-3-3-3-3-3-3-||------------------|-------------------|


                     1.,2.
  +E  E E E E E E E   +E  E E E E E E E  3x
|-------------------|--------------------||
|-------------------|-----------------2-o||
|-(5)-5-5-5-5-5-5---|-------------------o||
|-----------------5-|-(5)-5-5-5-5-5-5----||


 3.
  E E E E E E E E   +E  E E E E E E E
|-----------------|-------------------|
|-----------------|-------------------|
|---------------3-|-(3)-3-3-3-3-3-3---|
|-5-5-5-5-5-5-5---|-----------------3-|


  +E  E E E E E E E   +E  E E E E E E E   E E E E E E E E
|-------------------|-------------------|-----------------|
|-------------------|-------------------|-----------------|
|-----------------2-|-(2)-2-2-3-2-2-2-3-|-2-3-2-3-0-1-2---|
|-(3)-3-3-3-3-3-3---|-------------------|---------------3-|


   Vesre
    Q  E E Q  Q    Q  E E E E E E   Q  E E Q  Q    Q  E E E E E E
||---------------|----------------|--------------|------------------||
||o--------------|----------------|--------------|-----------------o||
||o-----------5--|----------5-----|-----------5--|--------0-1-2----o||
||--0--0-3-2-----|-0--0-3-2---3-2-|-0--0-3-2-----|-0--0-3-------3---||


   Solo (Poland)
    S S Q  E Q  E E   +E  E E E E E E E
||------------------|-------------------|
||o-2-0-2-----------|---------------4-5-|
||o--------2-3--2-0-|-(0)---------3-----|
||------------------|-----3-2-0-2-------|


  S S Q  E Q  E E   +E  E E E E E E E
|-----------------|---------------------||
|-2-0-2-----------|---------------4-5--o||
|--------2-3--2-0-|-(0)---------3------o||
|-----------------|-----3-2-0-2---------||


  E E E E E E E E   E E E E E E E E
|-----------------|-----------------|
|-----------------|-----------------|
|-----------------|-----------------|
|-0-0-0-0-0-0-0-0-|-0-0-0-0-0-0-0-0-|


   Solo (Mustaine)
    |----6----|             |----6----|
    S S S S S S E E Q  Q    S S S S S S E E E E E E
||------------------------|--------------------------|
||o-----------------------|--------------------------|
||o--------------------5--|-------------------5------|
||--0-0-0-0-0-0-0-3-2-----|-0-0-0-0-0-0-0-3-2---3-2--|


  |----6----|             |----6----|
  S S S S S S E E Q  Q    S S S S S S E E E E E E
|-----------------------|--------------------------||
|-----------------------|-------------------------o||
|--------------------5--|-----------------0-1-2---o||
|-0-0-0-0-0-0-0-3-2-----|-0-0-0-0-0-0-0-3-------3--||


     Solo (Poland)
      S S Q  E Q  E E   +E  E E E E E E E
|-||------------------|---------------------|
|-||o-2-0-2-----------|---------------4-5---|
|-||o--------2-3--2-0-|-(0)---------3-------|
|-||------------------|-----3-2-0-2---------|


                                             Bridge
                                              |----6----|
  S S Q  E Q  E E   +E  E E E E E E E         S S S S S S E E Q  Q
|-----------------|--------------------||-||------------------------|
|-2-0-2-----------|---------------4-5-o||-||o-----------------------|
|--------2-3--2-0-|-(0)---------3-----o||-||o--------------------5--|
|-----------------|-----3-2-0-2--------||-||--0-0-0-0-0-0-0-3-2-----|


  |----6----|               |----6----|
  S S S S S S E E E E E E   S S S S S S E E Q  Q
|-------------------------|------------------------|
|-------------------------|------------------------|
|-------------------5-----|--------------------5---|
|-0-0-0-0-0-0-0-3-2---3-2-|-0-0-0-0-0-0-0-3-2------|


  |----6----|
  S S S S S S E E E E E E  4x
|--------------------------||-|
|-------------------------o||-|
|-----------------0-1-2---o||-|
|-0-0-0-0-0-0-0-3-------3--||-|


   Out-Chorus
    |----6----|             |----6----|
    S S S S S S E E Q  Q    S S S S S S E E E E E E
||------------------------|-------------------------|
||o-----------------------|-------------------------|
||o--------------------5--|-------------------5-----|
||--0-0-0-0-0-0-0-3-2-----|-0-0-0-0-0-0-0-3-2---3-2-|


  |----6----|             |----6----|
  S S S S S S E E Q  Q    S S S S S S E E E E E E     q  H.
|-----------------------|--------------------------||----------*|
|-----------------------|-------------------------o||----------*|
|--------------------5--|-----------------0-1-2---o||----------*|
|-0-0-0-0-0-0-0-3-2-----|-0-0-0-0-0-0-0-3-------3--||-0--------*|


Duration Legend
---------------
W - whole; H - half; Q - quarter; E - 8th; S - 16th; T - 32nd; X - 64th; a - acciaccatura
+ - note tied to previous; . - note dotted; .. - note double dotted
Uncapitalized letters represent notes that are staccato (1/2 duration)
Irregular groupings are notated above the duration line
Duration letters will always appear directly above the note/fret number it represents the
duration for.  Duration letters with no fret number below them represent rests.  Multi-
bar rests are notated in the form Wxn, where n is the number of bars to rest for.  Low
melody durations appear below the staff

Tablature Legend
----------------
 h   - hammer-on
 p   - pull-off
 b   - bend
 pb  - pre-bend
 r   - bend release (if no number after the r, then release immediately)
 /\  - slide into or out of (from/to "nowhere")
 s   - legato slide
 S   - shift slide
  - natural harmonic
[n]  - artificial harmonic
n(n) - tapped harmonic
 ~   - vibrato
 tr  - trill
 T   - tap
 TP  - trem. picking
 PM  - palm muting
\n/  - tremolo bar dip; n = amount to dip
 \n  - tremolo bar down
 n/  - tremolo bar up
/n\  - tremolo bar inverted dip
 =   - hold bend; also acts as connecting device for hammers/pulls
 <>  - volume swell (louder/softer)
 x   - on rhythm slash represents muted slash
 o   - on rhythm slash represents single note slash

Misc Legend
-----------
 |  - bar
||  - double bar
||o - repeat start
o|| - repeat end
*|  - double bar (ending)
 :  - bar (freetime)
 $  - Segno
 &  - Coda
Tempo markers -  = BPM(8/16=s8/s16), where s8 = swing 8ths, s16 = swing 16ths
Suggest correction new What's this?
You can suggest a correction to this tab. Community and Mods will review your correction and vote to approve or reject it.
comments
We did not receive enough feedback on this tab! Please rate:
print report bad tab
1 2 3 4 5
guest
You may want to rate the tab now too:
select rating
Please do not post tabs as comments. Select "correction" instead!