Oops, an error
Loading. Please wait.

Duke Nukem Theme Bass Tab

version 3
version 3

Whole song

Interactive

3,066 views 3 this week
no commentswrite comment
1 2 3 4 5
1 last vote to show rating
add to favorites
launch autoscroll
font size
0
reset
guitar tuner
Autoscroll
slow
fast
+/-
esc
set tempo
stop
Help us to improve Ultimate-Guitar.com Take our survey!
×
Author
Difficulty
novice
Duke Nukem theme on bass guitar, play with a pick recommended to get the hard tone sound 
off your strings if you want to sound like James LoMenzo.
Easy song and wasn't too hard to tab enjoy.

(Intro)

G|------------------------------------------------------|
D|------------------------------------------------------|
A|------------------------------------------------------|
E|-00-0--00-0----00-0--11-1----00-0--00-0----00-0--11-1-|

(Chorus 1)

G|-----------------------------------------------------------------|
D|---------------------------------------------------------5-------|
A|---------------------------------------2h3p2--------3---------3--|
E|-0-3-0-5-0-0-0-5-0-7-0-0-0-7-0-8-0-0-0------5-3-0----------------|(x3)

G|-----------------------------------------------------------------|
D|---------------------------------------------------------5-------|
A|---------------------------------------2h3p2--------3---------3--|
E|-0-3-0-5-0-0-0-5-0-7-0-0-0-7-0-8-0-0-0------5-3-0----------------|

G|--------------------------------------------------|
D|-------5------5-----------------------------------|
A|--3---------3-------------------------------------|
E|---------------------11-1----11-1----11-1----11-1-|

(Verse1/solo1) bass kicks in at 1:16 follow the bass drum beat

G|----------------------------------------------------------------------|
D|----------------------------------------------------------------------|
A|--------------------------------3333333322222222----------------------|
E|--0~------0-0~--------0~------0------------------11-1-11-1--11-1-11-1-|

(Chorus 2)

G|-----------------------------------------------------------------|
D|---------------------------------------------------------5-------|
A|---------------------------------------2h3p2--------3---------3--|
E|-0-3-0-5-0-0-0-5-0-7-0-0-0-7-0-8-0-0-0------5-3-0----------------|(x3)

G|-----------------------------------------------------------------|
D|---------------------------------------------------------5-------|
A|---------------------------------------2h3p2--------3---------3--|
E|-0-3-0-5-0-0-0-5-0-7-0-0-0-7-0-8-0-0-0------5-3-0----------------|

G|--------------------------------------------------|
D|-------5------5-----------------------------------|
A|--3---------3-------------------------------------|
E|---------------------11-1----11-1----11-1----11-1-|

(verse2/solo2)starts at 2:03

G|-------------------------------------------------------------------|
D|-------------------------------------------------------------------|
A|-------------------------------------------------------------------|
E|-000000000000000000000000000000000000000000000000000000000000000000

G|--------------------------------------------------------------------|
D|--------------------------------------------------------------------|
A|--------------------------------------------3333333322222222--------|
E|-0000000000000000000000000000000000000000000----------------0000000-|

G|------------------------------------------------------------------|
D|------------------------------------------------------------------|
A|------------------------------------------------------------------|
E|000000000000000000000000000000000000000000000000000000000000000000

G|-------------------------------------------------------------------|
D|-------------------------------------------------------------------|
A|------------------------------------3333333322222222222222---------|
E|000000000000000000000000000000000000-----------------------2-2-333-|

G|------------------------------------------------------------------|
D|------------------------------------------------------------------|
A|------------------------------------------------------------------|
E|333333333333333333333333333333333333333333333333333333333333333333

G|-------------------------------------------------------------------|
D|-------------------------------------------------------------------|
A|---------------------------------6666666655555555------------------|
E|333333333333333333333333333333333----------------55555555555555555-|

G|------------------------------------------------------------------|
D|------------------------------------------------------------------|
A|------------------------------------------------------------------|
E|555555555555555555555555555555555555555555555555555555555555555555

G|----------------------------------------------------------------------|
D|----------------------------------(the slide is number 13-------------| not 1 and 3)
A|----------------------------------------------------------------------|
E|5555555555555552222222211-1---11-1---11-1---11-1---11-1---11-1/131313-|

G|-----------------------------------------------------------------------|
D|-----------------------------------------------------------------------|
A|-----------------------------------------------------------------------|
E|11111111111111111111111111111111111111111111-11-1---11-1---11-1---00-0-|

G|-----------------------------|
D|-----------------------------|
A|-----------------------------|
E|-11-1---11-1---11-1---00-0---|

(Chorus 3) ending of the riff changes here

G|--------------------------------------------------|
D|--------------------------------------------------|
A|---------------------------------------2h3p2------|
E|-0-3-0-5-0-0-0-5-0-7-0-0-0-7-0-8-0-0-0------5-3---|0(x3)

G|-------------------------------------------------|
D|-------------------------------------------------|
A|-------------------------------------------------|
E|-0-3-0-5-0-0-0-5-0-7-0-0-0-7-0-8-----------------|

Please rate good as i tried hard making sure every note was perfect and all fils were 
included as in the recording, hope you enjoyed cheers for reading my tab
Suggest correction
Give kudos to tab author, rate the tab!
1 2 3 4 5
comments
print report bad tab
guest
You may want to rate the tab now too:
select rating
Wanna post a correction for this tab? Suggest correction