Oops, an error
Loading. Please wait.

Family Tree bass

version 3
version 3

Whole song

  • Based off of the original song which is played on a 5 string bass.

Interactive

58 views 1 this week
no commentswrite comment
1 2 3 4 5
3 more votes to show rating
add to favorites
×
Save as Personal and add changes to this tab that will be seen only by you. Learn more ›
×
You can save this tab as Personal to edit and correct it or add notes. All changes will be seen only by you. Learn more »
launch autoscroll
font size
0
reset
guitar tuner
backing track
0:00
0:00
edit
Autoscroll
slow
fast
+/-
esc
set tempo
stop
About this tab version
Based off of the original song which is played on a 5 string bass. Was this info helpful? Yes No
Title: Family Tree
Artist: Megadeth
Album: Youthanasia
Tuning: 5 String Standard - 1/2 step down (A# D# G# C# F#)
Tab Author: Pearce Hamblin (The Bass Diaries)

   [Intro]
F#|---------------------------------|---------------------------------|---------------------------------|
C#|---------------------------------|---------------------------------|---------------------------------|
G#|---------------------------------|---------------------------------|---------------------------------|
D#|---------------------------------|---------------------------------|---------------------------------|
A#|-5---------------------------5---|-3---------------------------3---|-1---------------------------1---|


F#|---------------------------------|---------------------------------|---------------------------------|
C#|---------------------------------|---------------------------------|---------------------------------|
G#|---------------------------------|---------------------------------|---------------------------------|
D#|---------------------------------|---------------------------------|-2---------------------------2---|
A#|-3---------------------------3---|-5---------------------------5---|---------------------------------|


F#|---------------------------------|---------------------------------|---------------------------------|
C#|---------------------------------|---------------------------------|-----------------------------4///|
G#|---------------------------------|---------------------------------|-2-----------------------2-------|
D#|-3---------------------------3---|-5---------------------------5---|---------------------------------|
A#|---------------------------------|---------------------------------|---------------------------------|

                                     
F#|---------------------------------|---------------------------------|---------------------------------|
C#|/9-----------5-------2-----------|---------------------------------|---------------------------------|
G#|-------------------------3---2---|---------------------------------|---------------------------------|
D#|---------------------------------|-0-------0---0---0---0---0---0---|-0---0---2---0---3---0---5---7---|
A#|---------------------------------|---------------------------------|---------------------------------|

                                                                       [Verse 1]
F#|---------------------------------|---------------------------------|---------------------------------|
C#|---------------------------------|---------------------------------|---------------------------------|
G#|-7---7---7---7---7---7---7---7---|---------5-------0---2-----------|---------------------------------|
D#|---------------------------------|-5---7-------3-----------3---2---|-0---0---0---0---0---0---0---0---|
A#|---------------------------------|---------------------------------|---------------------------------|


F#|---------------------------------|---------------------------------|---------------------------------|
C#|---------------------------------|---------------------------------|---------------------------------|
G#|---------------------------------|-5---5---5---5---5---5---5---5---|-5---5---5---5---5-------5---7---|
D#|-0---0---0---0---0---0---5---7---|---------------------------------|---------------------7-----------|
A#|---------------------------------|---------------------------------|---------------------------------|


F#|---------------------------------|---------------------------------|---------------------------------|
C#|---------------------------------|---------------------------------|---------------------------------|
G#|---------------------------------|---------------------------------|---------------------------------|
D#|-5---5---5---5---5---5---5---5---|-5---5---5---5---5---3---5---7---|-8---8---8---8---8---8---7---8---|
A#|---------------------------------|---------------------------------|---------------------------------|


F#|---------------------------------|---------------------------------|---------------------------------|
C#|---------------------------------|---------------------------------|---------------------------------|
G#|-6---6---6---6---6-------7-------|---------------------------------|---------------------------------|
D#|---------------------7-------7---|-0---0---0---0---0---0---0---0---|-0---0---0---0---0---0---0---0---|
A#|---------------------------------|---------------------------------|---------------------------------|


F#|---------------------------------|---------------------------------|---------------------------------|
C#|---------------------------------|---------------------------------|---------------------------------|
G#|-5---5---5---5---5---5---5---5---|-5---5---5---5---5---5---5---5---|---------------------------------|
D#|---------------------------------|---------------------------------|-5---5---5---5---5---5---5---5---|
A#|---------------------------------|---------------------------------|---------------------------------|


F#|---------------------------------|---------------------------------|---------------------------------|
C#|---------------------------------|---------------------------------|---------------------------------|
G#|---------------------------------|---------------------------------|-6---6---6---6---6---6---6---6\\\|
D#|-5---5---5---5---5---5---5---5---|-8---8---8---8---8---8---8---8---|---------------------------------|
A#|---------------------------------|---------------------------------|---------------------------------|

   [Pre-Chorus 1]
F#|---------------------------------|---------------------------------|---------------------------------|
C#|---------------------------------|-------------5-------2-----------|---------------------------------|
G#|\3-------3---3---3---3---3---3---|-3---3---3-----------------------|---------------------------------|
D#|---------------------------------|-------------------------3---2---|-0-------0---0---0---0---0---0---|
A#|---------------------------------|---------------------------------|---------------------------------|


F#|---------------------------------|---------------------------------|---------------------------------|
C#|---------------------------------|---------------------------------|-------------5-------2-----------|
G#|-----------------------------3---|---------3---3---3---3---3---3---|-3---3---3-----------------------|
D#|-0---0---0---0---0---0---0-------|---------------------------------|-------------------------3---2---|
A#|---------------------------------|---------------------------------|---------------------------------|

                                                                       [Chorus 1]
F#|---------------------------------|---------------------------------|---------------------------------|
C#|---------------------4///////9---|-----7-------5-------4-------0---|---------------------------------|
G#|-2-----------2---2---------------|---------------------------------|-7-------------------------------|
D#|---------------------------------|---------------------------------|---------0---0---0---0---0---0---|
A#|---------------------------------|---------------------------------|---------------------------------|


F#|---------------------------------|---------------------------------|-----------------------------------|
C#|---------------------------------|---------------------------------|-----------------------------------|
G#|-----------------6-----------7---|---------------------------------|-------------3-------3---3---3//5--|
D#|-0---0---0---0-------7---0-------|-----0---0---0---0---0---0---0---|-0---0---0-------------------------|
A#|---------------------------------|---------------------------------|-----------------------------------|


F#|---------------------------------|---------------------------------|---------------------------------|
C#|---------------------------------|---------------------------------|---------------------------------|
G#|-7-------------------------------|-----------------6-----------7---|-----------------------------3---|
D#|---------0---0---0---0---0---0---|-0---0---0---0-------7---0-------|-----0---0---0---0---0---0-------|
A#|---------------------------------|---------------------------------|---------------------------------|

            [Verse 2]
F#|--------|---------------------------------|---------------------------------|
C#|--------|---------------------------------|---------------------------------|
G#|--------|---------------------------------|---------------------------------|
D#|--------|-0-------0---0---0---0---0---0---|-0---0---0---0---0---0---5---7---|
A#|--------|---------------------------------|---------------------------------|


F#|---------------------------------|---------------------------------|---------------------------------|
C#|---------------------------------|---------------------------------|---------------------------------|
G#|-5---5---5---5---5---5---5---5---|-5---5---5---5---5-------5---7---|---------------------------------|
D#|---------------------------------|---------------------7-----------|-5---5---5---5---5---5---5---5---|
A#|---------------------------------|---------------------------------|---------------------------------|


F#|---------------------------------|---------------------------------|---------------------------------|
C#|---------------------------------|---------------------------------|---------------------------------|
G#|---------------------------------|---------------------------------|-6---6---6---6---6-------7-------|
D#|-5---5---5---5---5---3---5---7---|-8---8---8---8---8---8---7---8---|---------------------7-------7---|
A#|---------------------------------|---------------------------------|---------------------------------|


F#|---------------------------------|---------------------------------|---------------------------------|
C#|---------------------------------|---------------------------------|---------------------------------|
G#|---------------------------------|---------------------------------|-5---5---5---5---5---5---5---5---|
D#|-0---0---0---0---0---0---0---0---|-0---0---0---0---0---0---0---0---|---------------------------------|
A#|---------------------------------|---------------------------------|---------------------------------|


F#|---------------------------------|---------------------------------|---------------------------------|
C#|---------------------------------|---------------------------------|---------------------------------|
G#|-5---5---5---5---5---5---5---5---|---------------------------------|---------------------------------|
D#|---------------------------------|-5---5---5---5---5---5---5---5---|-5---5---5---5---5---5---5---5---|
A#|---------------------------------|---------------------------------|---------------------------------|

                                                                       [Pre-Chorus 2]
F#|---------------------------------|---------------------------------|---------------------------------|
C#|---------------------------------|---------------------------------|---------------------------------|
G#|---------------------------------|-6---6---6---6---6---6---6---6\\\|\3-------3---3---3---3---3---3---|
D#|-8---8---8---8---8---8---8---8---|---------------------------------|---------------------------------|
A#|---------------------------------|---------------------------------|---------------------------------|


F#|---------------------------------|---------------------------------|---------------------------------|
C#|-------------5-------2-----------|---------------------------------|---------------------------------|
G#|-3---3---3-----------------------|---------------------------------|-----------------------------3---|
D#|-------------------------3---2---|-0-------0---0---0---0---0---0---|-0---0---0---0---0---0---0-------|
A#|---------------------------------|---------------------------------|---------------------------------|


F#|---------------------------------|---------------------------------|---------------------------------|
C#|---------------------------------|-------------5-------2-----------|---------------------4///////9---|
G#|---------3---3---3---3---3---3---|-3---3---3-----------------------|-2-----------2---2---------------|
D#|---------------------------------|-------------------------3---2---|---------------------------------|
A#|---------------------------------|---------------------------------|---------------------------------|

                                     [Chorus 2]
F#|---------------------------------|---------------------------------|---------------------------------|
C#|-----7-------5-------4-------0---|---------------------------------|---------------------------------|
G#|---------------------------------|-7-------------------------------|-----------------6-----------7---|
D#|---------------------------------|---------0---0---0---0---0---0---|-0---0---0---0-------7---0-------|
A#|---------------------------------|---------------------------------|---------------------------------|


F#|---------------------------------|---------------------------------|---------------------------------|
C#|---------------------------------|---------------------------------|---------------------------------|
G#|---------------------------------|-------------3-------3---3---3///|/7-------------------------------|
D#|-----0---0---0---0---0---0---0---|-0---0---0-----------------------|---------0---0---0---0---0---0---|
A#|---------------------------------|---------------------------------|---------------------------------|


F#|---------------------------------|---------------------------------|---------------------------------|
C#|---------------------------------|---------------------------------|---------------------------------|
G#|-----------------6-----------7---|---------------------------------|-------------3-------3---3---3///|
D#|-0---0---0---0-------7---0-------|-----0---0---0---0---0---0---0---|-0---0---0-----------------------|
A#|---------------------------------|---------------------------------|---------------------------------|


F#|---------------------------------|---------------------------------|---------------------------------|
C#|---------------------------------|---------------------------------|---------------------------------|
G#|/7-------------------------------|-----------------6-----------7---|---------------------------------|
D#|---------0---0---0---0---0---0---|-0---0---0---0-------7---0-------|-----0---0---0---0---0---0---0---|
A#|---------------------------------|---------------------------------|---------------------------------|


F#|---------------------------------|---------------------------------|---------------------------------|
C#|---------------------------------|---------------------------------|---------------------------------|
G#|-------------3-------3---3---3///|/7-------------------------------|-----------------6-----------7---|
D#|-0---0---0-----------------------|---------0---0---0---0---0---0---|-0---0---0---0-------7---0-------|
A#|---------------------------------|---------------------------------|---------------------------------|


F#|---------------------------------|--------|---------------------------------|
C#|-----------------------------5---|--------|-4-------------------------------|
G#|-----------------------------3---|--------|-2-------------------------------|
D#|-----0---0---0---0---0---0-------|--------|---------------------------------|
A#|---------------------------------|--------|---------------------------------|

   [Guitar Solo]
F#|---------------------------------|---------------------------------|
C#|---------------------------------|---------------------------------|
G#|---------------------------------|-------------------------5-------|
D#|-0-------0---0---0---0---0---0---|-2---2---2---3---3---3-----------|
A#|---------------------------------|---------------------------------|


F#|---------------------------------|---------------------------------|---------------------------------|
C#|---------------------------------|-5---5---5---4---4---4-----------|---------------------------------|
G#|-3-------3---3---3---3---3---3---|-------------------------5-------|---------------------------------|
D#|---------------------------------|-----------------------------3---|-0-------0---0---0---0---0---0---|
A#|---------------------------------|---------------------------------|---------------------------------|


F#|---------------------------------|---------------------------------|---------------------------------|
C#|---------------------------------|---------------------------------|-5---5---5---4---4---4-----------|
G#|-------------------------5-------|-3-------3---3---3---3---3---3---|-------------------------5-------|
D#|-2---2---2---3---3---3-----------|---------------------------------|-----------------------------3---|
A#|---------------------------------|---------------------------------|---------------------------------|


F#|---------------------------------|---------------------------------|---------------------------------|
C#|---------------------------------|---------------------------------|---------------------------------|
G#|---------------------------------|---------------------------------|---------------------------------|
D#|-0-------0---0---0---0---0---0---|-3-------3---3---3---3---3---3---|-5-------5---5---5---5---5---5---|
A#|---------------------------------|---------------------------------|---------------------------------|


F#|---------------------------------|---------------------------------|---------------------------------|
C#|---------------------------------|---------------------------------|---------------------------------|
G#|-3---3---3---3---2---2---2---3///|/7---7---7---7---7---7---7---7---|-10--10--10--10--10--10--10--10--|
D#|---------------------------------|---------------------------------|---------------------------------|
A#|---------------------------------|---------------------------------|---------------------------------|

                                                                       [Chorus 3]
F#|---------------------------------|---------------------------------|---------------------------------|
C#|-7---7---7---7---7---7---7---7---|-10--10--10--10\\9---9---9---9---|---------------------------------|
G#|---------------------------------|---------------------------------|-7-------------------------------|
D#|---------------------------------|---------------------------------|---------0---0---0---0---0---0---|
A#|---------------------------------|---------------------------------|---------------------------------|


F#|---------------------------------|---------------------------------|---------------------------------|
C#|---------------------------------|---------------------------------|---------------------------------|
G#|-----------------6-----------7---|---------------------------------|-------------3-------3---3---3///|
D#|-0---0---0---0-------7---0-------|-----0---0---0---0---0---0---0---|-0---0---0-----------------------|
A#|---------------------------------|---------------------------------|---------------------------------|


F#|---------------------------------|---------------------------------|---------------------------------|
C#|---------------------------------|---------------------------------|---------------------------------|
G#|/7-------------------------------|-----------------6-----------7---|---------------------------------|
D#|---------0---0---0---0---0---0---|-0---0---0---0-------7---0-------|-----0---0---0---0---0---0---0---|
A#|---------------------------------|---------------------------------|---------------------------------|


F#|---------------------------------|---------------------------------|---------------------------------|
C#|---------------------------------|---------------------------------|---------------------------------|
G#|-------------3-------3---3---3///|/7-------------------------------|-----------------6-----------7---|
D#|-0---0---0-----------------------|---------0---0---0---0---0---0---|-0---0---0---0-------7---0-------|
A#|---------------------------------|---------------------------------|---------------------------------|


F#|---------------------------------|---------------------------------|---------------------------------|
C#|---------------------------------|---------------------------------|---------------------------------|
G#|---------------------------------|-------------3-------3---3---3///|/7-------------------------------|
D#|-----0---0---0---0---0---0---0---|-0---0---0-----------------------|---------0---0---0---0---0---0---|
A#|---------------------------------|---------------------------------|---------------------------------|


F#|---------------------------------|---------------------------------|---------------------------------|
C#|---------------------------------|---------------------------------|---------------------------------|
G#|-----------------6-----------7---|---------------------------------|-------------3-------3---3---3///|
D#|-0---0---0---0-------7---0-------|-----0---0---0---0---0---0---0---|-0---0---0-----------------------|
A#|---------------------------------|---------------------------------|---------------------------------|

   [Outro]
F#|---------------------------------|---------------------------------|---------------------------------|
C#|---------------------------------|---------------------------------|---------------------------------|
G#|/7-------------------------------|-----------------6-----------7---|---------------------------------|
D#|---------0---0---0---0---0---0---|-0---0---0---0-------7---0-------|-----0---0---0---0---0---0---0---|
A#|---------------------------------|---------------------------------|---------------------------------|


F#|---------------------------------|---------------------------------|---------------------------------|
C#|---------------------------------|---------------------------------|---------------------------------|
G#|-------------3-------3---3---3///|/7-------------------------------|-----------------6-----------7---|
D#|-0---0---0-----------------------|---------0---0---0---0---0---0---|-0---0---0---0-------7---0-------|
A#|---------------------------------|---------------------------------|---------------------------------|


F#|---------------------------------|---------------------------------|---------------------------------|
C#|---------------------------------|---------------------------------|---------------------------------|
G#|---------------------------------|-------------3-------3---3---3///|/7-------------------------------|
D#|-----0---0---0---0---0---0---0---|-0---0---0-----------------------|---------0---0---0---0---0---0---|
A#|---------------------------------|---------------------------------|---------------------------------|


F#|---------------------------------|---------------------------------|
C#|---------------------------------|---------------------------------|
G#|-----------------6-----------7---|---------------------------------|
D#|-0---0---0---0-------7---0-------|-----0---0---0---0---0---0---0---|
A#|---------------------------------|---------------------------------|


Help us to improve Ultimate-Guitar.com Take our survey! ×
edit There is 1 revision of this tab
Last change: Dec 17, 2016 by TheBassDiaries unregister Author
Difficulty
Tuning
TheBassDiaries 571 advanced D# G# C# F# A# D#
Title: Facepalm Mute
Artist: Periphery
Album: Periphery II: This Time It's Personal
Tuning: Drop G# (G# D# G# C# F#)
Tab Author: Pearce Hamblin (The Bass Diaries)

   [5/8 - Intro]
F#|---------------------------|-------------------------------|---------------------------|
C#|---------------------------|-------------------------------|---------------------------|
G#|---------------------------|-------------------------------|---------------------------|
D#|---------------------------|-------------------------------|---------------------------|
G#|-7--4---4-----2--4--7--4---|-7--4-----4-----4--0-----0-----|-7--4---4-----2--4--7--4---|

   [6/8]                                 [5/8]
F#|-------------------------------------|---------------------------|-------------------------------|
C#|-------------------------------------|---------------------------|-------------------------------|
G#|-------------------------------------|---------------------------|-------------------------------|
D#|-------------------5-----5--5--5--5--|---------------------------|-------------------------------|
G#|-7--4-----4-----4--------------------|-7--4---4-----2--4--7--4---|-7--4-----4-----4--0-----0-----|

                               [6/8]                                 [5/8]
F#|---------------------------|-------------------------------------|---------------------------|
C#|---------------------------|-------------------------------------|---------------------------|
G#|---------------------------|-------------------------------------|---------------------------|
D#|---------------------------|-------------------------------------|---------------------------|
G#|-7--4---4-----2--4--7--4---|-7--4-----4-----4--3-----3-----3-----|-7--4---4-----2--4--7--4---|

                                                               [6/8]
F#|-------------------------------|---------------------------|-------------------------------------|
C#|-------------------------------|---------------------------|-------------------------------------|
G#|-------------------------------|---------------------------|-------------------------------------|
D#|-------------------------------|---------------------------|-------------------5-----5-----5--5--|
G#|-7--4-----4-----4--0-----0-----|-7--4---4-----2--4--7--4---|-7--4-----4--------------------------|

   [5/8]
F#|---------------------------|-------------------------------|---------------------------|
C#|---------------------------|-------------------------------|---------------------------|
G#|---------------------------|-------------------------------|---------------------------|
D#|---------------------------|-------------------------------|---------------------------|
G#|-7--4---4-----2--4--7--4---|-7--4-----4-----4--0-----0-----|-7--4---4-----2--4--7--4---|

   [6/8]                                 [5/8 - Verse 1]
F#|-------------------------------------|---------------------|---------------------|
C#|-------------------------------------|---------------------|---------------------|
G#|-------------------------------------|---------------------|---------------------|
D#|-------------------------------------|---------------------|---------------------|
G#|-7--4-----4-----4--3-----3--3--3--3--|-4-------------------|---------------------|

                         [6/8]           [4/8]
F#|---------------------|---------------|-----------------|-----------------|-------|
C#|---------------------|---------------|-----------------|-----------------|-------|
G#|---------------------|---------------|-----------------|-----------------|-------|
D#|---------------------|---------------|-----------------|-----------------|-------|
G#|-------------4-------|---------------|-4---------------|-----------------|-------|

                             [4/4 - Instrumental]
F#|-----------------|-------|-------------------------------------------------|
C#|-----------------|-------|-------------------------------------------------|
G#|-----------------|-------|-------------------------------------------------|
D#|-----------------|-------|-------------------------------------------------|
G#|-4---------------|-------|-3--0--3--4--X--3--0--3--4--X--3--0--3--4--X--4--|


F#|-------------------------------------------------|-------------------------------------------------|
C#|-------------------------------------------------|-------------------------------------------------|
G#|-------------------------------------------------|-------------------------------------------------|
D#|-------------------------------------------------|-------------------------------------------------|
G#|-X--4-----4--X--3--0--3--4-----7-----7--7--7-----|-0--0--0--0--0--0--0--0--0--3--3--3--3--3--3--3--|


F#|-------------------------------------------------|-------------------------------------------------|
C#|-------------------------------------------------|-------------------------------------------------|
G#|-------------------------------------------------|-------------------------------------------------|
D#|-------------------------------------------------|-------------------------------------------------|
G#|-3--0--3--4--X--3--0--3--4--X--3--0--3--4--X--4--|-X--4-----4--X--3--6--3--4-----7-----7--7--7-----|

                                                     [Verse 2]
F#|-------------------------------------------------|-------------------------------------------------|
C#|-------------------------------------------------|-------------------------------------------------|
G#|-------------------------------------------------|-------------------------------------------------|
D#|-------------------------------------------------|-4-----------------------------------------------|
G#|-0--0--0--0--0--0--0--0--0--3--3--3--3--3--3--3--|----4--3-----4-----4--4-----4-----4-----4--4--4--|


F#|-------------------------------------------------|-------------------------------------------------|
C#|-------------------------------------------------|-------------------------------------------------|
G#|-------------------------------------------------|-------------------------------------------------|
D#|-------------------------------------------------|-4-----------------------------------------------|
G#|-X--4--4-----4-----4-----7--7--7-----0--3-----0--|----4--3-----4-----X--4--X--4--X--4--X--4--4--4--|


F#|-------------------------------------------------|-------------------------------------------------|
C#|-------------------------------------------------|-------------------------------------------------|
G#|-------------------------------------------------|-------------------------------------------------|
D#|-------------------------------------------------|-4-----------------------------------------------|
G#|-X--0--0-----0--0--0-----3--3--3-----X--3-----X--|----4--3-----4-----X--4-----4-----4-----4--4--4--|


F#|-------------------------------------------------|-------------------------------------------------|
C#|-------------------------------------------------|-------------------------------------------------|
G#|-------------------------------------------------|-------------------------------------------------|
D#|-------------------------------------------------|-4-----------------------------------------------|
G#|----4--4-----4-----4-----7--7--7-----0--3-----0--|----4--3-----4-----X--4-----4-----4-----4--4--4--|

                                                     [2/4]
F#|-------------------------------------------------|-------|
C#|-------------------------------------------------|-------|
G#|-------------------------------------------------|-------|
D#|-------------------------------------------------|-------|
G#|-X--0--0-----0-----0-----3--3--3-----X--3--------|-------|

   [4/4 - Pre-Chorus 1]
F#|-------------------------------------------------|-------------------------------------------------|
C#|-------------------------------------------------|-------------------------------------------------|
G#|-------------------------------------------------|-------------------------------------------------|
D#|-------------------------------------------------|-------------------------------------------------|
G#|-4--------4--4-----4-----4-----------2-----2--2--|----0--0--0--0-----0-----0--------0--2--2-----2--|


F#|-------------------------------------------------|-------------------------------------------------|
C#|-------------------------------------------------|-------------------------------------------------|
G#|-------------------------------------------------|-------------------------------------------------|
D#|-------------------------------------------------|-------------------------2--2--2--2--2--2--2--2--|
G#|----4--4--4--4-----4-----4--4--------2--------2--|----0--0--0--0-----0-----------------------------|

   [Chorus 1]
F#|-------------------------------------------------|-------------------------------------------------|
C#|-------------------------------------------------|-------------------------------------------------|
G#|-------------------------------------------------|-------------4--------------4--------------------|
D#|-------------5-----------5-----------------------|-------------------------------------------------|
G#|-0--------0--------0--------------2-----------2--|----4--4-----------4-----4-----------2--2-----2--|


F#|-------------------------------------------------|-------------------------------------------------|
C#|-------------------------------------------------|-------------------------------------------------|
G#|-------------------------------------------------|-------------4--------------4--------------------|
D#|-------------5-----------5-----------------------|-------------------------------------------------|
G#|-0--------0--------0--------------2-----------2--|----4--4-----------4-----4-----------4--7--7--7--|


F#|-------------------------------------------------|-------------------------------------------------|
C#|-------------------------------------------------|-------------------------------------------------|
G#|-------------------------------------------------|-------------4--------------4--------------------|
D#|-------------5-----------5-----------------------|-------------------------------------------------|
G#|-0--------0--------0--------------2-----------2--|----4--4-----------4-----4-----------2--2-----2--|


F#|-------------------------------------------------|-------------------------------------------------|
C#|-------------------------------------------------|-------------------------------------------------|
G#|-------------------------------------------------|-------------4-----------------------------------|
D#|-------------5-----------5-----------------------|-------------------------------------------------|
G#|-0-----0--0--------0--------------2-----------2--|----4--4-----------4-----4-----7-----7--7--7--7--|

  [2/4]                      [5/8 - Intro Riff]
F#|-------------------------|-------------------------------|-------------------------------|
C#|-------------------------|-------------------------------|-------------------------------|
G#|-------------------------|-------------------------------|-------------------------------|
D#|-------------X--X--X--X--|-------------------------------|-------------------------------|
G#|-0-----------------------|-7--4-----4-----2--4--7--4-----|-7--4-----4-----4--0-----0-----|

                                   [6/8]                                 [5/8]
F#|-------------------------------|-------------------------------------|-------------------------------|
C#|-------------------------------|-------------------------------------|-------------------------------|
G#|-------------------------------|-------------------------------------|-------------------------------|
D#|-------------------------------|-------------------------------------|-------------------------------|
G#|-7--4-----4-----2--4--7--4-----|-7--4-----4-----4--5-----5--5--5--5--|-7--4-----4-----2--4--7--4-----|

                                                                   [6/8]
F#|-------------------------------|-------------------------------|-------------------------------------|
C#|-------------------------------|-------------------------------|-------------------------------------|
G#|-------------------------------|-------------------------------|-------------------------------------|
D#|-------------------------------|-------------------------------|-------------------------------------|
G#|-7--4-----4-----4--0-----0-----|-7--4-----4-----2--4--7--4-----|-7--4-----4-----4--3-----3-----3-----|

   [4/4]         [Verse 3]
F#|-------------|-------------------------------------------------|
C#|-------------|-------------------------------------------------|
G#|-------------|-------------------------------------------------|
D#|-------------|-4-----------------------------------------------|
G#|-------------|----4--3-----4-----X--4-----4-----4-----4--4--4--|


F#|-------------------------------------------------|-------------------------------------------------|
C#|-------------------------------------------------|-------------------------------------------------|
G#|-------------------------------------------------|-------------------------------------------------|
D#|-------------------------------------------------|-4-----------------------------------------------|
G#|----4--4-----4-----4-----7--7--7\\\\\0--3-----0--|----4--3-----4-----X--4-----4-----4-----X--X--4--|


F#|-------------------------------------------------|-------------------------------------------------|
C#|-------------------------------------------------|-------------------------------------------------|
G#|-------------------------------------------------|-------------------------------------------------|
D#|-------------------------------------------------|-4-----------------------------------------------|
G#|----0--0--X--0--X--0--X--3--3--3-----X--3-----0--|----4--3-----4-----X--4-----4-----4-----X--X--4--|


F#|-------------------------------------------------|-------------------------------------------------|
C#|-------------------------------------------------|-------------------------------------------------|
G#|-------------------------------------------------|-------------------------------------------------|
D#|-------------------------------------------------|-4-----------------------------------------------|
G#|-X--4--4-----4-----4-----7--7--7\\\\\0--3-----0--|----4--3-----4-----X--4-----4-----4-----X--X--0--|

                                                     [Breakdown]
F#|-------------------------------------------------|-------------------------------------------------|
C#|-------------------------------------------------|-------------------------------------------------|
G#|-------------------------------------------------|-------------------------------------------------|
D#|-------------------------------------------------|-2-----------------------------------------------|
G#|-X--0--0-----0-----0-----3--3--3-----X--3-----0--|----2--0-----1-----1--1-----1-----1-----1--1--1--|


F#|-------------------------------------------------|-------------------------------------------------|
C#|-------------------------------------------------|-------------------------------------------------|
G#|-------------------------------------------------|-------------------------------------------------|
D#|-------------------------------------------------|-2-----------------------------------------------|
G#|-1--1--1-----1-----1-----4--4--4-----4--7--7\\\\\|----2--0-----1-----1--1-----1-----1-----1--1--1--|

                                                     [2/4]
F#|-------------------------------------------------|-----------|
C#|-------------------------------------------------|-----------|
G#|-------------------------------------------------|-----------|
D#|-------------------------------------------------|-----------|
G#|----0--0-----0-----0-----3--3--3-----3--6--------|-X---------|

   [4/4 - Verse 4]
F#|-------------------------------------------------|-------------------------------------------------|
C#|-------------------------------------------------|-------------------------------------------------|
G#|-------------------------------------------------|-------------------------------------------------|
D#|-------------------------------------------------|-------------------------------------------------|
G#|-3--0--3--4-----3--0--3--4-----3--0--3--4-----4--|----4-----4-----3--0--3--4-----7-----7--7--7-----|


F#|--------------------------------------------------|-------------------------------------------------|
C#|--------------------------------------------------|-------------------------------------------------|
G#|--------------------------------------------------|-------------------------------------------------|
D#|--------------------------------------------------|-------------------------------------------------|
G#|-0--0--0-----0--0--0--0--0--3-3-3--3--3--3--3--3--|-3--0--3--4-----3--0--3--4-----3--0--3--4-----4--|


F#|-------------------------------------------------|-------------------------------------------------|
C#|-------------------------------------------------|-------------------------------------------------|
G#|-------------------------------------------------|-------------------------------------------------|
D#|-------------------------------------------------|-------------------------------------------------|
G#|----4-----4-----3--0--3--4-----7-----7--7--7-----|-0--0--0--0--0--0--0--0--0--3--3--3--3--3--3--3--|

   [2/4]   [4/4 - Pre-Chorus 2]
F#|-------|-------------------------------------------------|
C#|-------|-------------------------------------------------|
G#|-------|-------------------------------------------------|
D#|-------|-------------------------------------------------|
G#|-------|-4--------4--4-----4--4--4-----------1--------2--|


F#|-------------------------------------------------|-------------------------------------------------|
C#|-------------------------------------------------|-------------------------------------------------|
G#|-------------------------------------------------|-------------------------------------------------|
D#|-------------------------------------------------|-------------------------------------------------|
G#|----0--0--0--0-----0-----0-----------2-----2--2--|----4--4--4--4-----4-----4-----------2--------2--|

                                                         [Chorus 2]
F#|-----------------------------------------------------|-------------------------------------------------|
C#|-----------------------------------------------------|-------------------------------------------------|
G#|-----------------------------------------------------|-------------------------------------------------|
D#|-----------------------------------------------------|-------------5-----------5-----------------------|
G#|----0--0--0--0-----0-----7-7-----7---7-7-7--7--7--7--|-0--------0--------0--------------2-----------2--|


F#|-------------------------------------------------|-------------------------------------------------|
C#|-------------------------------------------------|-------------------------------------------------|
G#|-------------4--------------4--------------------|-------------------------------------------------|
D#|-------------------------------------------------|-------------5-----------5-----------------------|
G#|----4--4-----------4-----4-----------2--2-----2--|-0--------0--------0--------------2-----------2--|


F#|-------------------------------------------------|-------------------------------------------------|
C#|-------------------------------------------------|-------------------------------------------------|
G#|-------------4--------------4--------------------|-------------------------------------------------|
D#|-------------------------------------------------|-------------5-----------5-----------------------|
G#|----4--4-----------4-----4-----------4//7--7--7--|-0--------0--------0--------------2-----------2--|


F#|-------------------------------------------------|-------------------------------------------------|
C#|-------------------------------------------------|-------------------------------------------------|
G#|-------------4--------------4--------------------|-------------------------------------------------|
D#|-------------------------------------------------|-------------5-----------5-----------------------|
G#|----4--4-----------4-----4-----------2--2-----2--|-0--------0--------0--------------2-----------2--|


F#|-------------------------------------------------|-------------------------------------------------|
C#|-------------------------------------------------|-------------------------------------------------|
G#|-------------4-----------------------------------|-------------------------------------------------|
D#|-------------------------------------------------|-------------5-----------5-----------------------|
G#|----4--4-----------4-----4//7--7-----7--7--7--7--|-0--------0--------0--------------2-----------2--|


F#|-------------------------------------------------|-------------------------------------------------|
C#|-------------------------------------------------|-------------------------------------------------|
G#|-------------4--------------4--------------------|-------------------------------------------------|
D#|-------------------------------------------------|-------------5-----------5-----------------------|
G#|----4--4-----------4-----4-----------2--2-----2--|-0--------0--------0--------------2-----------2--|


F#|-------------------------------------------------|-------------------------------------------------|
C#|-------------------------------------------------|-------------------------------------------------|
G#|-------------4--------------4--------------------|-------------------------------------------------|
D#|-------------------------------------------------|-------------5-----------5-----------------------|
G#|----4--4-----------4-----4--------4--7--7--7--7--|-0--------0--------0--------------2-----------2--|


F#|-------------------------------------------------|-------------------------------------------------|
C#|-------------------------------------------------|-------------------------------------------------|
G#|-------------4--------------4--------------------|-------------------------------------------------|
D#|-------------------------------------------------|-------------5-----------5-----------------------|
G#|----4--4-----------4-----4-----------2--2--------|-0--------0--------0--------------2-----------2--|


F#|-------------------------------------------------|-------------------------------------------------|
C#|-------------------------------------------------|-------------------------------------------------|
G#|-------------4-----------------------------------|-------------------------3-----3--4--------------|
D#|-------------------------------------------------|----------------------------4--------------------|
G#|----4--4-----------4-----4--7-----7--7--7--7--7--|-0-----------X--X--X--X-----------------3--0--3--|

   [Outro 1]
F#|-------------------------------------------------|--------|--------|--------|
C#|-------------------------------------------------|--------|--------|--------|
G#|-------------------------------------------------|--------|--------|--------|
D#|-------------------------------------------------|--------|--------|--------|
G#|-4\\\\\------------------------------------------|--------|--------|--------|


F#|--------|--------|--------|--------|--------|--------|--------|--------|--------|
C#|--------|--------|--------|--------|--------|--------|--------|--------|--------|
G#|--------|--------|--------|--------|--------|--------|--------|--------|--------|
D#|--------|--------|--------|--------|--------|--------|--------|--------|--------|
G#|--------|--------|--------|--------|--------|--------|--------|--------|--------|

                              [Outro 2]
F#|--------|--------|--------|-------------------------------------------------|--------|
C#|--------|--------|--------|-------------------------------------------------|--------|
G#|--------|--------|--------|-------------------------------------------------|--------|
D#|--------|--------|--------|-------------------------------------------------|--------|
G#|--------|--------|--------|-6--6--7--7--9-----------------6--6--7--7--9-----|--------|


F#|-------------------------------------------------|-------------------------------------------------|
C#|-------------------------------------------------|-------------------------------------------------|
G#|-------------------------------------------------|-------------------------------------------------|
D#|-------------------------------------------------|-------------------------------------------------|
G#|-6--6--7--7--9-----------------6--6--7--7--9-----|-------------------------9--------6--9-----9-----|


F#|-------------------------------------------------|--------|
C#|-------------------------------------------------|--------|
G#|-------------------------------------------------|--------|
D#|-------------------------------------------------|--------|
G#|-4--4--4--4--2-----------------4-----7-----2-----|--------|


F#|-------------------------------------------------|-------------------------------------------------|
C#|-------------------------------------------------|-------------------------------------------------|
G#|-------------------------------------------------|-------------------------------------------------|
D#|-------------------------------------------------|-------------------------------------------------|
G#|-4-----7-----2-----------------4-----7-----2-----|-------------------------4-----------4-----------|


F#|-------------------------------------------------|-------------------------------------------------|
C#|-------------------------------------------------|-------------------------------------------------|
G#|-------------------------------------------------|-------------------------------------------------|
D#|-------------------------------------------------|-------------------------------------------------|
G#|-------------6-----7-----9-----------------6-----|-7-----9-----------------------------------------|


F#|-------------------------------------------------|-------------------------------------------------|
C#|-------------------------------------------------|-------------------------------------------------|
G#|-------------------------------------------------|-------------------------------------------------|
D#|-------------------------------------------------|-------------------------------------------------|
G#|-------------6-----7-----9-----------------6-----|-7-----9-----------------------------9-----9-----|


F#|-------------------------------------------------|--------|
C#|-------------------------------------------------|--------|
G#|-------------------------------------------------|--------|
D#|-------------------------------------------------|--------|
G#|-4--4--4--4--0-----------------4--4--7-----2-----|--------|


F#|-------------------------------------------------|-------------------------------------------------|
C#|-------------------------------------------------|-------------------------------------------------|
G#|-------------------------------------------------|-------------------------------------------------|
D#|-------------------------------------------------|-------------------------------------------------|
G#|-4-----7-----0-----------------4-----7-----2-----|-------------------------4-----4-----4--4--4--4--|

   [Outro 3]
F#|--------|--------|--------|--------|--------|--------|--------|--------|--------|--------|
C#|--------|--------|--------|--------|--------|--------|--------|--------|--------|--------|
G#|--------|--------|--------|--------|--------|--------|--------|--------|--------|--------|
D#|--------|--------|--------|--------|--------|--------|--------|--------|--------|--------|
G#|--------|--------|--------|--------|--------|--------|--------|--------|--------|--------|


F#|--------|--------|--------|--------|--------|--------|--------|--------|--------|
C#|--------|--------|--------|--------|--------|--------|--------|--------|--------|
G#|--------|--------|--------|--------|--------|--------|--------|--------|--------|
D#|--------|--------|--------|--------|--------|--------|--------|--------|--------|
G#|--------|--------|--------|--------|--------|--------|--------|--------|--------|


***********************************
| /   Slide up
| \   Slide down
***********************************

            
            
Suggest correction
Creating personal tab
Creating personal tab
You can edit any tab online and save it as your Personal.

You can edit, replace or remove any tab part or add personal notes – all changes will be seen only by you.

Personal tabs can be accessed anytime from any device, even offline.
Learn more »
Give kudos to tab author, rate the tab!
1 2 3 4 5
comments
print report bad tab
guest
You may want to rate the tab now too:
select rating
Wanna post a correction for this tab? Suggest correction