Oops, an error
Loading. Please wait.

Five Magics Bass Tab

version 1
version 1
15,537 views 21 this week
3 commentsread comments
1 2 3 4 5
accurate
x 9
add to favorites
launch autoscroll
font size
0
reset
guitar tuner
Autoscroll
slow
fast
+/-
esc
set tempo
stop
Help us to improve Ultimate-Guitar.com Take our survey!
×
Contributor
bassplaya53 2,527
4/4 INTRO RIFF
G[---------------------|----------------------]
D[---------------------|----------------------]
A[--7-6-5-----7-6-5----|-7-6-5-----7-6-5------]
E[---------6---------6-|--------6---------3---]
 
G[---------------------|----------------------]
D[---------------------|----------------------]
A[--7-6-5-----7-6-5----|-7-6-5-----7-6-5------]
E[---------6---------6-|--------6---------6-3-]

4/4 RIFF A x 7
G[--------------------0-----|----------------------11------]
D[*-------5--------8-----8--|--------9---------10------10--]
A[-----7--------7-----------|----10--------12--------------]
E[*-0--------0--------------|-0---------0------------------]

G[--------------------0------|----------------------11------||
D[--------5--------8-----8---|--------9---------10--------*-||
A[-----7--------7------------|----10--------12--------------||
E[--0--------0---------------|-0---------0----------------*-||
 
G[--------------------0------|----------------------11------]
D[--------5--------8-----8---|--------9---------10------10--]
A[-----7--------7------------|----10--------12--------------]
E[--0--------0---------------|-0---------0------------------]
 
RIFF B x 3
G[----------------------------|-------------------------||
D[*--------5--------5---------|-----------------------*-||
A[------5--------5------------|-2--0--2--4--5--4--5--7--||
E[*--7--------6--------3--2---|-----------------------*-||
 
G[---------------------------|------------------------||
D[--------5--------5---------|------------------------||
A[-----5--------5------------|------------------------||
E[--7--------6--------3--2---|-0----------------------||

RIFF A x 5
G[--------------------0-----|----------------------11------]
D[--------5--------8-----8--|--------9---------10------10--]
A[-----7--------7-----------|----10--------12--------------]
E[--0--------0--------------|-0---------0------------------]
 
G[--------------------------|-----------------------------||
D[--------5--------5--------|-----------------------------||
A[-----5--------5-----------|-2--0--2--4--5--4--5--7------||
E[--7--------6--------3--2--|------------------------0----||

VERSE RIFF x 7
G[----------------------|-------------------|---------------------]
D[*---------------------|-------------------|---------------------]
A[----------------------|-------------------|------------2--------]
E[*-(1)-1-1-1--1-1-1-1--|-1-1-1-1--0-3-5-0--|-(0)--0-0-------5-3--]
 
G[----------------------||---------------------|-------------------]
D[--------------------*-||---------------------|-------------------]
A[----------------------||---------------------|-------------------]
E[----(3)--3--2--1----*-||-(1)-1-1-1--1-1-1-1--|-1-1-1-1--0-3-5-0--]

5/8 INTERLUDE RIFF
G[--------|---------|---------|---------|---------|---------]
D[--------|---------|---------|---------|---------|---------]
A[--------|---------|---------|---------|---------|---------]
E[--------|---------|-0-------|-(0)-----|-0-------|---------]
                                                        x8
G[-9------|-(9)---------------||------------|------------||
D[--------|-------------------||*-----------|----------*-||
A[-7------|-(7)---------------||------------|------------||
E[--------|-------------0--0--||*-0-----1---|-2-----3--*-||

                                                    4/4
G[------------|------------||----------|----------|-----------------||
D[*-----------|----------*-||----------|----------|-----------------||
A[--7-----8---|-9-----10---||-7-----6--|-5-----4--|-3-----2---1-----||
E[*-----------|----------*-||----------|----------|-----------------||

4/4 "GIVE ME ALCHEMY..."
G||--------------------|-------------------|--------------------]
D||*-------------------|-------------------|--------------------]
A||--2-0---------------|-2-0---------------|-2-0----------------]
E||*-----3-2--0--------|-----3-2--1--------|-----3-2--1h2--(2)--]
                       
                      5/4  "I master..." x 4
G[-------------------||-------------------------|------------------------]
D[-----------------*-||*------------------------|------------------------]
A[-2-0---------------||--2-0--------------------|-2-0--------------------]
E[-----3-2--3------*-||*-----3-2--0-0-0--0-0-0--|-----3-2--1-1-1--1-1-1--]

                                                      5/8
G[------------------------|-------------------------||-----------||
D[------------------------|-----------------------*-||-----------||
A[-2-0--------------------|-2-0---------------------||-2-0-------||
E[-----3-2--1h2-2--2-2-2--|-----3-2--3-3-3--3-3-3-*-||-----3-2-1-||

4/4  x 4
G[----------------------|-------------------|-----------------------------]
D[*---------------------|-------------------|-----------------------------]
A[----------------------|-------------------|-----------------------------]
E[*-(1)-1-1-1--1-1-1-1--|-1-1-1-1--0-3-5-0--|-(0)-000--000--000--000-000--]
                            
                             x 3
G[---------------------||--------|-------------------]
D[-------------------*-||*-------|-------------------]
A[---------------------||--------|-------------------]
E[-000--000--0-0-0-1-*-||*-(1)---|-(1)------0-3-5-0--]


G[-------------------------|---------------------||
D[-------------------------|-------------------*-||
A[-------------------------|---------------------||
E[-(0)--000--000--000--000-|-000--000--0-0-0-1-*-||
                              

G[-------|-------------------]
D[-------|-------------------]
A[-------|-------------------]
E[-(1)---|-(1)------0-3-5-0--]

                                          x 4
G[-----------------|-------------------||------------------]
D]*----------------|-----------------*-||*-----------------]
A[-----------------|-------7---6-5-----||------------------]
E[*-0---7-----6----|-7-------------7-*-||*-0-0-7-0-0-6-0-0-]

 
G[-------------------||--------------------|--------------------||
D[-----------------*-||--------------------|--------------------||
A[-------7---6-5-----||-7-6-5-----7-6-5----|-7-6-5-----7-6-5----||
E[-7-0-0---------7-*-||--------6---------6-|--------6---------3-||
 
  Repeat whole phrase x 3
G[------------------|-----------------|-----|-----|--------------------]
D[*-----------------|-----------------|-----|-----|--------------------]
A[------------------|-------7---6-5---|--%--|--%--|-7-6-5-----7-6-5----]
E[*-0-0-7-0-0-6-0-0-|-7-0-0---------7-|-----|-----|--------6---------6-]
                      
G[---------------------||--------------------|----------------------|-----||
D[--------------------*||--------------------|----------------------|-----||
A[-7-6-5-----7-6-5-----||-7-6-5-----7-6-5----|-7-6-5-----7-6-5------|-----||
E[--------6---------3-*||--------6---------6-|--------6---------6-3-|-0---||
comments
print report bad tab
3 comments total.
+1 reply
corrda00 3,069 wrote on August 1 2008, 06:50 pm

Pretty good tab i must admit. But in riff B he plays some forth chords and ends on a harmonic chord like this.

RIFF B x 3
G[----------------------------|-2--0--2--4--5--4--5--7--||
D[*--------5--------5---------|-2--0--2--4--5--4--5--7*-||
A[------5--------5------------|-------------------------||
E[*--7--------6--------3--2---|-----------------------*-||

G[---------------------------|-----------------------||
D[--------5--------5---------|-----------------------||
A[-----5--------5------------|-----------------------||
E[--7--------6--------3--2---|--------------------------||

+3 reply
Metal5115 178 wrote on September 28 2008, 09:38 am

pretty damn good.

0 reply
Steven du Pont 51 wrote on December 10 2011, 05:25 pm

Nice, thank you, and good job :)

I want to post or [tab]
guest
You may want to rate the tab now too:
select rating
Please do not post tabs as comments. Select "correction" instead!