Oops, an error
Loading. Please wait.

Five Magics Bass Tab

version 3
version 3
7,375 views 15 this week
12 commentsread comments
1 2 3 4 5
x 13
add to favorites
launch autoscroll
font size
0
reset
guitar tuner
Autoscroll
slow
fast
+/-
esc
set tempo
stop
Help us to improve Ultimate-Guitar.com Take our survey!
×
Author
Album: Rust In Peace

Tabbed By: Kaseke
Tuning: Standard

************************
< > = Natural harmonic
P.M. = Palm mute
x = Mute
h = Hammer-on
p = Pull-off
/ = Slide up
\ = Slide down
b = Bend
************************


The 10s in the beginning and end are tens, not ones and zeros.


(0:00)
G|-----------------------------|
D|-----------------------------|
A|-7650--7650--7650--765010----|
E|-----6-----6-----6-----------|(x2)


(0:05)
Let Ring~~~~~~~~~~~~~~~~~~~~~~~~~~~~~~~~~~~~~~~~~~~~~~~~~~~~~~~~~~~~~~~~~~~~~~~~~~~~~
G|--------------0-------------------11-----|--------------0-------------------11-----|
D|------5-----8---8------9-------10----10--|------5-----8---8------9-------10--------|
A|----7-----7---------10------12-----------|----7-----7---------10------12-----------|
E|--0-----0---------0-------0--------------|--0-----0---------0-------0--------------|(x7)

Let Ring~~~~~~~~~~~~~~~~~~~~~~~~~~~~~~~~~~~
G|--------------0-------------------11----|
D|------5-----8---8------9-------10----10-|
A|----7-----7---------10------12----------|
E|--0-----0---------0-------0-------------|


(1:01)
G|-----------------4-3-4-6-7-6-7-9-|
D|---0-5---0-5-----2-1-2-4-5-4-5-7-|
A|-2-----1-------------------------|
E|-------------3-2-----------------|(x3)

                   
G|-----------------<5>------|
D|---0-5---0-5-----<5>------|
A|-2-----1--------------10\-|
E|-------------3-2----------|


(1:16)
Let Ring~~~~~~~~~~~~~~~~~~~~~~~~~~~~~~~~~~~~~~~~~~~~~~~~~~~~~~~~~~~~~~~~~~~~~~~~~~~~~
G|--------------0-------------------11-----|--------------0-------------------11-----|
D|------5-----8---8------9-------10----10--|------5-----8---8------9-------10--------|
A|----7-----7---------10------12-----------|----7-----7---------10------12-----------|
E|--0-----0---------0-------0--------------|--0-----0---------0-------0--------------|(x5)

Let Ring~~~~~~~~~~~~~~~~~~~~~~~~~~~~~~~~~~~
G|--------------0-------------------11----|
D|------5-----8---8------9-------10----10-|
A|----7-----7---------10------12----------|
E|--0-----0---------0-------0-------------|


(1.57)
G|--------------------|
D|---0-5---0-5--------|
A|-2-----1------------|
E|-------------3-2-0--|


(2:04)
G|-------|
D|-------|
A|---2---|
E|-0---3-|

G|--------------------------------------------------------|
D|----------------------------0h2-----------------------2-|
A|--------------------------2-----------2-------------2---|
E|-1--1-1-1-1-1-1-1-1-1-1-0------0--0-0----0-0-55-3-0-----| (x7)

G|--------------------------------|
D|----------------------------0h2-|
A|--------------------------2-----|
E|-1--1-1-1-1-1-1-1-1-1-1-0-------|


(2:48)
G|---------------------------------------------|
D|---------------------------------------------|
A|--------------------------------/7-------2---|
E|0----------0----------0--------------------3-|


(2:57)
G|----------------------|
D|----------------------|
A|----------------------|
E|-0-0-001-1-2-2-223333-|

G|----------------------|
D|----------------------|
A|----------------------|
E|-0-0-001-1-2-2-223333-|(x7)
P.M.....................

(3:14)
G|-----7h9----------11p9----12-|
D|---9------10---11-------12---|
A|-7------8----9--------10-----|
E|-----------------------------|(x2)

G|-------------------------------------|
D|-------------------------------------|
A|7-7-776-6-5-5-5544443-3-332-2-1-1-11-|
E|-------------------------------------|


(3:23)
G|---------------------------------------------------|
D|---------------------------------------------------|
A|-2-0---------2-0---------2-0----------2-0----------|
E|-----3-2-0-------3-2-1-------3-2-1/2-------3-2-3---|
(speeds up on this part)

G|-------------------------------------------------------------------------------|
D|-------------------------------------------------------------------------------|
A|-2-0----------------2-0-----------------2-0---------------2-0------------------|
E|-----3-2-0-0-x-0-0-0-----3-2-1-1-x-1-1-1----3-2-1/2--2-2-2----3-2-3-3-x-3-3-3--|(x4)

G|----------|
D|----------|
A|-2-0------|
E|-----3-2--|


(4:03)
G|--------------------------------------------------------|
D|----------------------------0h2-----------------------2-|
A|--------------------------2-------------------------2---|
E|-1--1-1-1-1-1-1-1-1-1-1-0------0--0-000-000-000-000-----|(x3)

G|--------------------------------------------------------|
D|----------------------------0h2-----------------------2-|
A|--------------------------2-------------------------2---|
E|-1--1111111111111111111-0------0--0-000-000-000-000-----|(x3)

G|--------------------------|
D|----------------------0h2-|
A|--------------------2-----|
E|-1----------------0-------|


(4:44)
G|-------------------------------------|
D|-------------------------------------|
A|-------------------------------------|
E|-0-----------------0-----------------|

G|------------------------|
D|------------------------|
A|-------------/7--6------|
E|-0--7--6--7--------7-6--|(x2)


(4:55)
G|---------------------------------|
D|---------------------------------|
A|-----------------------/7--6-----|
E|-00007-00006-00007-0000------7-6-|(x2)


(5:01)
G|---------------------------------|
D|---------------------------------|
A|-----------------------/7--6-----|
E|-0000770000660000770000------7-6-|(x2)

G|-------------------------------|
D|-------------------------------|
A|-765----765----765---76510\----|
E|-----6------6------6-----------|(whole thing x4)

G|-------------------------------|
D|-------------------------------|
A|-765----765----765---76510\----|
E|-----6------6------6---------0-|
Suggest correction
comments
print report bad tab
12 comments total. Showing first comments.
0 reply
Zaqq 589 Jul 08, 2012 11:26 AM

Good tab, but I still can't understand the intro. It sounds... strange. And I think that let-ring riff should be:

G|--------------0-------------------11-----|--------------0-------------------11-----|
D|------5-----8---8------9-------10----10--|------5-----8---8------9-------10--------|
A|----7-----7---------10------12-----------|----7-----7---------10------12-----------|
E|--0-----0---------0-------0--------------|--0-----0---------0-------0--------------|(x7)

+1 reply
Kaseke 397 Jul 08, 2012 12:36 PM

http://www.youtube.com/watch?v=2BBAUwC1BI4&feature=related
This should clear things up.

0 reply
Zaqq 589 Jul 09, 2012 11:19 AM

I've seen this video recently (again). Still your let-ring riff is incorrect. That your 11 instead of 9 just is off-key and it obviously sounds wrong compared to the video. And in video you can see he doesn't play that 10-11 chord.

guest
You may want to rate the tab now too:
select rating
Wanna post a correction for this tab? Suggest correction