Oops, an error
Loading. Please wait.

Foreclosure Of A Dream Tab

version 1
version 1

Whole song

Interactive

32,694 views 33 this week
3 commentsread comments
1 2 3 4 5
x 9
add to favorites
launch autoscroll
font size
0
reset
how to read this tab
guitar tuner
Autoscroll
slow
fast
+/-
esc
set tempo
stop
Help us to improve Ultimate-Guitar.com Take our survey!
×
Intro
(Hold throughout)
e|-------------------------------------------------------------------------|
B|-------------------------------------------------------------------------|
G|---------0--------0--------0--------0--------0--------0------------------|
D|------0--------0--------0--------0---------------------------------------|
A|--10--------7--------8--------4----------5-------1-----------------------|
E|-------------------------------------------------------------------------|

e|-------------------------------------------------------------------------|
B|-------------------------------------------------------------------------|
G|---------0--------0--------0--------0-------0-------0--------------------|
D|------0--------0--------0--------0---------------------------------------|
A|--10--------7-------13--------8--------10------13------------------------|
E|-------------------------------------------------------------------------|

e|-------------------------------------------------------------------------|
B|-------------------------------------------------------------------------|
G|---------0--------0--------0--------0--------0--------0------------------|
D|------0--------0--------0--------0---------------------------------------|
A|--10--------7--------8--------4----------5-------1-----------------------|
E|-------------------------------------------------------------------------|

[Guitar 2]
e|-------------------------8-----7--------6--------------------------------|
B|---8------------6--------------------------------6-----------------------|
G|-------------------------5-----4--------3--------------------------------|
D|---5------------3--------------------------------3-----------------------|
A|-------------------------------------------------------------------------|
E|-------------------------------------------------------------------------|

[Guitar 1]                                                                        
e|-------------------------------------------------------------------------|
B|-------------------------------------------------------------------------|
G|---------0--------0--------0--------0-------0--------0-------------------|
D|------0--------0--------0--------0---------------------------------------|
A|---------------------3--------2--------1---------------------------------|
E|---3--------1-----------------------------------1------------------------|

[Verse 1,2 & 3]
(Guitar 2)
e|-------------------------------------------------------------------------|
B|--8----------------------------------------------------------------------|
G|-------------------------------------------------------------------------|
D|--5----------------------------------------------------------------------|
A|-------------------------------------------------------------------------|
E|-------------------------------------------------------------------------|

[Guitar 1]
e|-------------------------------------------------------------------------|
B|-------------------------------------------------------------------------|
G|---------0--------0--------0--------0-------0--------0-------------------|
D|------0--------0--------0--------0---------------------------------------|
A|---------------------3--------2--------1-------1h3-----------------------|
E|---3--------1------------------------------------------------------------|
 
[Guitar 2]
e|-------------------------8-----7--------6--------------------------------|
B|---8------------6--------------------------------6-----------------------|
G|-------------------------5-----4--------3--------------------------------|
D|---5------------3--------------------------------3-----------------------|
A|-------------------------------------------------------------------------|
E|-------------------------------------------------------------------------|

(Guitar 1)                                                                 
e|-------------------------------------------------------------------------|
B|-------------------------------------------------------------------------|
G|---------0--------0--------0--------0-------0--------0-------------------|
D|------0--------0--------0--------0---------------------------------------|
A|---------------------3--------2--------1-------1h3-----------------------|
E|---3--------1------------------------------------------------------------|
 
[Guitar 2]
e|-------------------------------------------------------------------------|
B|-10----------------------------------------------------------------------|
G|-----------------------------------------------------------7-------------|
D|--7----------------------------------------7----9----10------------------|
A|-------------------------------------------------------------------------|
E|-------------------------------------------------------------------------|

(Guitar 1)                                                                 
   |Hold---------------------------------------------------------ª           |
e|-------------------------------------------------------------------------|
B|----------0--------0---------0--------0----------0---------0-------------|
G|------5---------5--------5---------5-------------------------------------|
D|--7----------6--------5---------4----------3----------1------------------|
A|-------------------------------------------------------------------------|
E|-------------------------------------------------------------------------|

[Guitar 2]
e|-------------------------------------------------------------------------|
B|-------------------------------------------------------------------------|
G|---9---------------------------------------7--------(7)\-----------------|
D|-------------------------------------------------------------------------|
A|-------------------------------------------------------------------------|
E|-------------------------------------------------------------------------|

[Guitar 1]
   |Hold---------------------------------------------------------ª           |
e|-------------------------------------------------------------------------|
B|-------------------------------------------------------------------------|
G|----------0--------0---------0--------0----------0---------0-------------|
D|------5---------5--------5---------5-------------------------------------|
A|--7----------6--------5---------4----------3----------2------------------|
E|-------------------------------------------------------------------------|
 
[Guitar 2]
e|-------------------------------------------------------------------------|
B|-------------------------------------------------------------------------|
G|-------------------------------------------------------------------------|
D|-------------------------------------------------------------------------|
A|--5----------------------------------------------------------------------|
E|-------------------------------------------------------------------------|

[Guitar 1]                                                               
   | Hold-------------------------------------------------------------------ª|
e|-------------------------------------------------------------------------|
B|-------------------------------------------------------------------------|
G|--------0--------0--------------0-----------------0--------0--------0----|
D|-----0--------0------------0-----------------0---------------------------|
A|--5--------3-------------------------------------------------------------|
E|--------------------6-----------------5-----------------3-------1--------|
                
(Double time)
[Chorus]
(Both gtrs)
e|-------------------------------------------------------------------------|
B|-------------------------------------------------------------------------|
G|---------------------------------------5------3--------------------------|
D|--5------3-----------------------------5------3--------------------------|
A|--5------3-----------------------------3------1------1--1--1--1--1--1----|
E|--3------1------1--1--1--1--1--1-----------------------------------------|

e|-------------------------------------------------------------------------|
B|-------------------------------------------------------------------------|
G|---------------------------------------5------3--------------------------|
D|--5------3-----------------------------5------3-----5-----6--------------|
A|--5------3-----------------------------3------1-----3-----4--------------|
E|--3------1------1--1--1--1--1--1-----------------------------------------|

[Repeat chorus]
(Half time)
e|-------------------------------------------------------------------------|
B|-------------------------------------------------------------------------|
G|-------------------------------------------------------------------------|
D|--5----------------------------------------------------------------------|
A|--5----------------------------------------------------------------------|
E|--3----------------------------------------------------------------------|

[Gtr. 1]                                                                   
e|-------------------------------------------------------------------------|
B|-------------------------------------------------------------------------|
G|---------0--------0--------0--------0--------0--------0------------------|
D|------0--------0--------0--------0---------------------------------------|
A|--10--------7--------8--------4----------5-------1-----------------------|
E|-------------------------------------------------------------------------|

[Gtr. 1]
e|-------------------------------------------------------------------------|
B|-------------------------------------------------------------------------|
G|---------0--------0--------0--------0-------0-------0--------------------|
D|------0--------0--------0--------0---------------------------------------|
A|--10--------7-------13--------8--------10------13------------------------|
E|-------------------------------------------------------------------------|

[Gtr. 1]
e|-------------------------------------------------------------------------|
B|-------------------------------------------------------------------------|
G|---------0--------0--------0--------0--------0--------0------------------|
D|------0--------0--------0--------0---------------------------------------|
A|--10--------7--------8--------4----------5-------1-----------------------|
E|-------------------------------------------------------------------------|

[Guitar 2]
e|-------------------------8-----7--------6--------------------------------|
B|---8------------6--------------------------------6-----------------------|
G|-------------------------5-----4--------3--------------------------------|
D|---5------------3--------------------------------3-----------------------|
A|-------------------------------------------------------------------------|
E|-------------------------------------------------------------------------|

[Guitar 1]                                                                      
e|-------------------------------------------------------------------------|
B|-------------------------------------------------------------------------|
G|---------0--------0--------0--------0-------0--------0-------------------|
D|------0--------0--------0--------0---------------------------------------|
A|---------------------3--------2--------1---------------------------------|
E|---3--------1-----------------------------------1------------------------|

(Repeat the verse part, then chorus, then the interlude)
[Gtr. 2]       
                  hold bend-----------------------------\
e|-----------------------------------------------------\-------------------|
B|------------------------------------------------------\------------------|
G|----7pbrf----(7)bf-------(7)t17---(17)p(7)------------(7)----------------|
D|-------------------------------------------------------------------------|
A|-------------------------------------------------------------------------|
E|-------------------------------------------------------------------------|

[Gtr. 1]                                                                   
e|-------------------------------------------------------------------------|
B|-------------------------------------------------------------------------|
G|-------------------------------------------------------------------------|
D|--------------7-----------5----------------------------------------------|
A|--------------7-----------5----------------------------------------------|
E|--------------5-----------3---------3--3--3--3--3--3---------------------|

[Gtr. 2]
e|-------------------------------------------------------------------------|
B|-------------------------------------------------------------------------|
G|----7---7---7----7p5-----------------5h6p5--------5----------------------|
D|---------------------------------------------7---------7--6--5-----------|
A|-------------------------------------------------------------------7-----|
E|-------------------------------------------------------------------------|

[Gtr. 1]                                                                   
e|-------------------------------------------------------------------------|
B|-------------------------------------------------------------------------|
G|----7--------5-----------------------------------------------------------|
D|----7--------5---------5-----6-------5------------------------5----------|
A|----5--------3---------7-----8-------5------------------------5----------|
E|-------------------------------------7------------------------3----------|

[Gtr. 2]
e|-------------------------------------------------------------------------|
B|-------------------------------------------------------------------------|
G|-------------------------------------------------------------------------|
D|----5h6p5-------------5--------------------------------------------------|
A|---------------7------------7-----6p5------------5h6p5----------5--------|
E|------------------------------------------8---------------8----------8---|

[Gtr. 1]                                                                   
e|-------------------------------------------------------------------------|
B|-------------------------------------------------------------------------|
G|-------------------------------------------------7-----------------------|
D|-------------------------------------------------7-----------------------|
A|-------------------------------------------------5-----------------------|
E|---------------4-----4-----4----4---4----4-------------------------------|

[Gtr. 2]                                   
                                         let ring             (Gtr. 2 out)
e|-------------------------------------|-----------------------------------|
B|-------------------------------------|-----------------------------------|
G|-------------------------------------|---9-------------------------------|
D|-------------------------------------|-----------------------------------|
A|---5--------2//////(16)\\\\(13)\-----|---7-------------------------------|
E|-------------------------------------------------------------------------|

[Gtr. 1]                                                                   
e|-------------------------------------|-----------------------------------|
B|-------------------------------------|-----------------------------------|
G|------------5------------------------|------------5p4---------------2p4--|
D|------------5-------8------5---------|-----------------------------------|
A|------------3-------6------7---------|---2---2--------------2---2--------|
E|-------------------------------------|-----------------------------------|

[Gtr. 1 or Gtrs 1 & 2]
e|-------------------------------------------------------------------------|
B|-------------------------------------------------------------------------|
G|-------------------------------------------------5p4---------------2h4---|
D|---------------5p4--------------2h4--------------------------------------|
A|---2----2---------------2---2------------2---2------------2---2----------|
E|-------------------------------------------------------------------------|
 
e|------------------------------------------|
B|------------------------------------------|
G|------------------------------------------|
D|--------------5p4-------4-----5------6----|
A|--2----2----------------2-----3------4----|
E|------------------------------------------|

(Half time)
[Gtr. 2]
e|-------------------------------------------------------------------------|
B|-------------------------------------------------------------------------|
G|-------------------------------------------------------------------------|
D|--5----------------------------------------------------------------------|
A|--5----------------------------------------------------------------------|
E|--3----------------------------------------------------------------------|

[Gtr. 1]
e|----------------------------------------------------------|
B|----------------------------------------------------------|
G|---------0--------0--------0--------0--------0--------0---|
D|------0--------0--------0--------0------------------------|
A|--10--------7--------8--------4----------5-------1--------|
E|----------------------------------------------------------|

[Gtr.1] 
e|---------------------------------------------------------|
B|---------------------------------------------------------|
G|---------0--------0--------0--------0-------0-------0----|
D|------0--------0--------0--------0-----------------------|
A|--10--------7-------13--------8--------10------13--------|
E|---------------------------------------------------------|

[Gtr. 1]
e|---------------------------------------------------------|
B|---------------------------------------------------------|
G|---------0--------0--------0--------0--------0--------0--|
D|------0--------0--------0--------0-----------------------|
A|--10--------7--------8--------4----------5-------1-------|
E|---------------------------------------------------------|

[Guitar 2]
e|-------------------------8-----7--------6--------------------------------|
B|---8------------6--------------------------------6-----------------------|
G|-------------------------5-----4--------3--------------------------------|
D|---5------------3--------------------------------3-----------------------|
A|-------------------------------------------------------------------------|
E|-------------------------------------------------------------------------|

[Guitar 1]                                                                        
e|-------------------------------------------------------------------------|
B|-------------------------------------------------------------------------|
G|---------0--------0--------0--------0-------0--------0-------------------|
D|------0--------0--------0--------0---------------------------------------|
A|---------------------3--------2--------1---------------------------------|
E|---3--------1-----------------------------------1------------------------|

[Repeat verse, then the solo]

[Solo]
[Gtr. 1]            
                        /\/\/\/\/\/\
e|--------15-------15--------------19-------19pbr«-(19)p15-----------------|
B|----18bf-----18bf----------------------------------------18---15---------|
G|--------------------------------------------------------------------17---|
D|-------------------------------------------------------------------------|
A|-------------------------------------------------------------------------|
E|-------------------------------------------------------------------------|

[Gtr. 2]                                                                   
e|-------------------------------------------------------------------------|
B|-------------------------------------------------------------------------|
G|--------------------------------------------5----------------------------|
D|----5---------3-----------------------------5----------------------------|
A|----5---------3-----------------------------3----------------------------|
E|----3---------1----1--1--1--1--1--1--------------------------------------|

[Gtr. 1]
e|-------------------------------------------------------------------------|
B|--18p15------------------------------------------------------------------|
G|-----------17---16-------------------------------------14--------------15|
D|-----------------------17--15--14--15--14h15p14----17------17--15--17----|
A|-------------------------------------------------------------------------|
E|-------------------------------------------------------------------------|

[Gtr.2]                                                                    
e|-------------------------------------------------------------------------|
B|-------------------------------------------------------------------------|
G|---3---------------------------------------------------------------------|
D|---3------------------------------------------------5-------------------3|
A|---1-------------------1--1--1--1--1--1-------------5-------------------3|
E|----------------------------------------------------3-------------------1|

[Gtr. 1]
e|---------------------------------------------------------15--------------|
B|--------------------------------------------------18bf--------18---15----|
G|-----------------------15--17---17pbrf--(17)p15--------------------------|
D|---17p15-------15h17-----------------------------------------------------|
A|-----------17------------------------------------------------------------|
E|-------------------------------------------------------------------------|

[Gtr.2]
e|-------------------------------------------------------------------------|
B|-------------------------------------------------------------------------|
G|----------------------------------------------------5--------------------|
D|----------------------------------------------------5--------------------|
A|----------------------------------------------------3--------------------|
E|------------------------1---1---1---1---1---1----------------------------|

[Gtr. 1]
                                          /\/\/\/\/\/\
e|-------------------------------------------------------------------------|
B|-----------15----18---------15-------------------------------------------|
G|---17bf----------------17----------15--------------(15)\-----------------|
D|-------------------------------------------------------------------------|
A|-----------------------------------------------------------/17---15--16--|
E|-------------------------------------------------------------------------|

[Gtr. 2]                                                 Repeat last 4 bars|
e|-------------------------------------------------------------------------|
B|-------------------------------------------------------------------------|
G|------------3------------------------------------------------------------|
D|------------3-----------------------5--------------6---------------------|
A|------------1-----------------------3--------------4---------------------|
E|-------------------------------------------------------------------------|

[Gtr. 1]
e|-------------------------------------------------------------------------|
B|-----------------------------------------------------------------17bf«---|
G|--------------------15---17h18p17-17pbr«---17(17)p15---------------------|
D|---------15----17-------------------------------------17----15-----------|
A|----17-------------------------------------------------------------------|
E|-------------------------------------------------------------------------|

[Gtr. 1]
e|-------------------------------------------------------------------------|
B|-------------------------------------------------------------------------|
G|--17pbrf-------(17)---17p15---17--17p15-------14-------------------------|
D|-----------------------------------------17---------15-------------------|
A|---------------------------------------------------------17\(12)\--------|
E|-------------------------------------------------------------------------|

[Gtr. 1]
e|-------------------------------------------------------------------------|
B|----------15---18------15---------15---18---15---18p15--------15---------|
G|----16-------------17------17bf--------------------------17--------------|
D|-------------------------------------------------------------------------|
A|-------------------------------------------------------------------------|
E|-------------------------------------------------------------------------|

[Gtr. 1]
e|--18--17--15---------------------------------------|
B|---------------18--17--15--------------------------|
G|---------------------------17--16--15--------------|
D|---------------------------------------17--16--15--|
A|---------------------------------------------------|
E|---------------------------------------------------|

[Gtr. 1]   
            /\/\/\                                 /\/\/\/\/\/\/\/\/\
e|--------------------------------------------------------------------|
B|------------------------------------8brf----(8)8bf------------------|
G|----------------------------7p9-------------------------------------|
D|---5------5------/7----10-------------------------------------------|
A|--------------------------------------------------------------------|
E|--------------------------------------------------------------------|

[Gtr. 2]                                                              
e|--------------------------------------------------------------------|
B|--------------------------------------------------------------------|
G|------------------------------------7----------5--------------------|
D|---7------5-------------------------7----------5--------7--------8--|
A|---7------5-------------------------5----------3--------5--------6--|
E|---5------3-----3--3--3--3--3--3------------------------------------|

[Gtr. 1]
e|--/12p11p10---------------------------------------------|
B|-----------h13--10-----10h13----------------------------|
G|-------------------12----------8p7---5------------5-----|
D|-----------------------------------------7--5--7-----7--|
A|--------------------------------------------------------|
E|--------------------------------------------------------|

[Gtr. 2]                                                 
e|--------------------------------------------------------|
B|--------------------------------------------------------|
G|--------------------------------------------------------|
D|--7----------------5------------------------------------|
A|--7----------------5------------------------------------|
E|--5----------------3----------4---4---4---4---4---4-----|

[Gtr. 1]
e|------------------5h7h8p7p5-------------------------------------14h15h17-|
B|---------5h7h8-------------h8------------------------14h15h17------------|
G|--5h7h8----------------------------------14h16h17------------------------|
D|-------------------------------14h16h17----------------------------------|
A|-------------------------------------------------------------------------|
E|-------------------------------------------------------------------------|

[Gtr. 2]
e|-------------------------------------------------------------------------|
B|-------------------------------------------------------------------------|
G|---7-----------------5---------------------------------------------------|
D|---7-----------------5----------------8------------------7---------------|
A|---5-----------------3----------------6------------------5---------------|
E|-------------------------------------------------------------------------|

[Gtr. 1]
          /\/\/\/\/\/\/\/\/\/\/\/\/\/\/\/\/\/\/\/\/\/\/\/\/\/\/\/\/\/\/\/\/\
e|---17bf------------------------------------------------------------------|
B|-------------------------------------------------------------------------|
G|-------------------------------------------------------------------------|
D|-------------------------------------------------------------------------|
A|-------------------------------------------------------------------------|
E|-------------------------------------------------------------------------|

[Gtr. 2]
e|-------------------------------------------------------------------------|
B|-------------------------------------------------------------------------|
G|-------------5p4-------------2h4-----------------------------------------|
D|---------------------------------------------5p4------------2h4----------|
A|----2---2-------------2---2---------2---2------------2---2---------------|
E|-------------------------------------------------------------------------|

[Gtr. 2]
e|-------------------------------------------------------------------------|
B|-------------------------------------------------------------------------|
G|-----------5p4------------2h4--------------------------------------------|
D|--------------------------------------------5p4------4-----5----6--------|
A|--2---2-----------2---2------------2---2-------------2-----3----4--------|
E|-------------------------------------------------------------------------|

(Half time)
[Verse 4]
       let ring
e|-------------------------------------------------------------------------|
B|-------------------------------------------------------------------------|
G|-------------------------------------------------------------------------|
D|---5---------------------------------------------------------------------|
A|---5---------------------------------------------------------------------|
E|---3---------------------------------------------------------------------|

(Repeat 4 first bars, then chorus, then)
e|-------------------------------------------------------------------------|
B|-------------------------------------------------------------------------|
G|-----------------------------------------7-----5-------------------------|
D|---7--------5----------------------------7-----5-------------------------|
A|---7--------5----------------------------5-----3------3--3--3--3--3--3---|
E|---5--------3-------5--5--5--5--5--5-------------------------------------|

e|-------------------------------------------------------------------------|
B|-------------------------------------------------------------------------|
G|----------------------------------------7------5-------------------------|
D|---7--------5---------------------------7------5------7----8-------------|
A|---7--------5---------------------------5------3------5----6-------------|
E|---5--------3------5--5--5--5--5--5--------------------------------------|

e|-------------------------------------------------------------------------|
B|-------------------------------------------------------------------------|
G|---------------------------------------5------3--------------------------|
D|--5------3-----------------------------5------3--------------------------|
A|--5------3-----------------------------3------1------1--1--1--1--1--1----|
E|--3------1------1--1--1--1--1--1-----------------------------------------|

e|-------------------------------------------------------------------------|
B|-------------------------------------------------------------------------|
G|---------------------------------------5------3--------------------------|
D|--5------3-----------------------------5------3-----5-----6--------------|
A|--5------3-----------------------------3------1-----3-----4--------------|
E|--3------1------1--1--1--1--1--1-----------------------------------------|
 
(Half time)
[Gtr. 2]
e|-------------------------------------------------------------------------|
B|-------------------------------------------------------------------------|
G|----------------------------------------------3/5------------------------|
D|--5-------------------------------------------3/5------------------------|
A|--5-------------------------------------------1/3------------------------|
E|--3----------------------------------------------------------------------|

[Gtr. 1]                                                                   
e|-------------------------------------------------------------------------|
B|-------------------------------------------------------------------------|
G|---------0--------0--------0--------0-------0--------0-------------------|
D|------0--------0--------0--------0---------------------------------------|
A|---------------------3--------2--------1-------1h3-----------------------|
E|---3--------1------------------------------------------------------------|

[Gtr 2]
e|-------------------------------------------------------------------------|
B|-------------------------------------------------------------------------|
G|-------------------------------------------------------------------------|
D|---5---------------------------------------------------------------------|
A|---5------------------------------------------3--------------------------|
E|---3------------------------------------------1--------------------------|

[Gtr. 1]                                                                   
e|-------------------------------------------------------------------------|
B|-------------------------------------------------------------------------|
G|---------0--------0--------0--------0-------0--------0-------------------|
D|------0--------0--------0--------0---------------------------------------|
A|---------------------3--------2--------1--------1h3----------------------|
E|---3--------1------------------------------------------------------------|

[Gtr. 2]
e|-------------------------------------------------------------------------|
B|-------------------------------------------------------------------------|
G|-------------------------------------------------------------------------|
D|---5---------------------------------------------------------------------|
A|---5---------------------------------------------3-----------------------|
E|---3---------------------------------------------1-----------------------|

[Gtr. 1]                                                                   
e|-------------------------------------------------------------------------|
B|-------------------------------------------------------------------------|
G|---------0--------0--------0--------0--------0--------0------------------|
D|------0--------0--------0--------0---------------------------------------|
A|--10--------7--------8--------4----------5-------1-----------------------|
E|-------------------------------------------------------------------------|

[Gtr. 2]                                                 let ring
e|-------------------------------------------------------------------------|
B|-------------------------------------------------------------------------|
G|---5---------------------------------------------------------------------|
D|---5--------------------------------------------------5------------------|
A|---3---------------------------------------3----------5------------------|
E|-------------------------------------------1----------3------------------|

[Gtr. 1]
e|-------------------------------------------------------------------------|
B|-------------------------------------------------------------------------|
G|---------0--------0--------0--------0------------------------------------|
D|------0--------0--------0--------0---------------------------------------|
A|--10--------7-------13--------8--------10--------------------------------|
E|-------------------------------------------------------------------------|


************************************

| h    Hammer-on
| \    Slide down
| (n)  Ghost note
| p    Pull-off
| /    Slide up

************************************
Suggest correction
comments
print report bad tab
3 comments total.
0 reply
SetMyAngerFree 10 Oct 06, 2006 06:35 PM

***** by the way whats with the suicide isnt painless thing? good tab

0 reply
Rhythym Guitar 10 Mar 30, 2008 01:04 AM

This dosent seem very accurate. I play exactly what it says but it just isnt right.

0 reply
anky_des427 10 Dec 10, 2008 09:37 PM

tuning is standerd right?

guest
You may want to rate the tab now too:
select rating
Wanna post a correction for this tab? Suggest correction