Oops, an error
Loading. Please wait.

Go To Hell Bass Tab

version 1
version 1

Whole song

Interactive

3,084 views 6 this week
no commentswrite comment
1 2 3 4 5
accurate
x 3
add to favorites
launch autoscroll
font size
0
reset
guitar tuner
Autoscroll
slow
fast
+/-
esc
set tempo
stop
Help us to improve Ultimate-Guitar.com Take our survey!
×
Contributor
Tuning
tonedeafidiot 39,126
D A D G B E
#----------------------------------PLEASE NOTE---------------------------------#
#This file is the author's own work and represents their interpretation of the #
#song. You may only use this file for private study, scholarship, or research. #
#------------------------------------------------------------------------------#

GO TO HELL (Bassline)
As recorded by Megadeth
(From the 1991 Album BILL AND TED'S BOGUS JOURNEY)

Transcribed by unregistered
	

Words and Music by Dave Mustaine and Dave Ellefson

Gtr I (D A D G) - 'Untitled'

   Intro
    Moderate Rock Q=126                               1.
   4/4
    Gtr I
    Q  E E E E E E   E E Q  E E E E   Q  E E E E E E   E E Q  E E E E
||-----------------|----------------|----------------|------------------||
||o----------------|----------------|----------------|-----------------o||
||o----------------|----------------|----------------|-----------------o||
||--2--2-2-2-2-2-2-|-2-2-3--3-3-3-3-|-2--2-2-2-2-2-2-|-2-2-1--1-1-1-1---||


  2.             Half time Q=64
                      ~            ~              ~            ~
  E E Q  E E E E    a Q  S S S S a Q  S S S S   a Q  S S S S a Q  S S S S
|----------------||---------------------------|----------------------------|
|----------------||---------------------------|----------------------------|
|--------2-------||-5s7--2-------5s6--2-------|-4s5--2-------3s4--2--------|
|-2-2-1----5-4-3-||--------5-4-3--------5-4-3-|--------5-4-3--------5-4-3--|


 7/8         2/4                 4/4
  H    q  E   S S S S S S S S     S S S S E S S S S S S S S S S
|-----------|-----------------||--------------------------------|
|-----------|-----------------||o-------------------------4-2---|
|-3----2----|-2-2-2-2-2-------||o---2-2-2-3-3-3---4-4-4-5-----3-|
|-----------|-----------5-4-3-||--2-------------2---------------|


  S S S S E S S S S S S S S S S
|---------------------------------||
|--------------------------------o||
|---2-2-2-3-3-3---------2--------o||
|-2-------------4-4-4-4---5-4-3---||


 1st Verse
  Double time Q=126
  Q  E E E E E E   E E Q  E E E E   Q  E E E E E E   E E Q  E E E E
|----------------|----------------|----------------|----------------|
|----------------|----------------|----------------|----------------|
|----------------|----------------|----------------|----------------|
|-2--2-2-2-2-2-2-|-2-2-3--3-3-3-3-|-2--2-2-2-2-2-2-|-2-2-1--1-1-1-1-|


  Q  E E E E E E   E E Q  E E E E   Q  E E E E E E   E E Q  E E E E
|----------------|----------------|----------------|----------------|
|----------------|----------------|----------------|----------------|
|----------------|----------------|----------------|--------2-------|
|-2--2-2-2-2-2-2-|-2-2-3--3-3-3-3-|-2--2-2-2-2-2-2-|-2-2-1----5-4-3-|


  Half time Q=64                                        F
    ~            ~              ~            ~
  a Q  S S S S a Q  S S S S   a Q  S S S S a Q  S S S S
|---------------------------|---------------------------|
|---------------------------|---------------------------|
|-5s7--2-------5s6--2-------|-4s5--2-------3s4--2-------|
|--------5-4-3--------5-4-3-|--------5-4-3--------5-4-3-|


 aster Q=200
  W          +W           W
|----------|------------|------|
|----------|------------|------|
|-3--------|-(3)--------|-2----|
|----------|------------|------|


              Half time Q=100
  +H.      Q     W          H    Q  S S E   W          H    Q  S S E
|-------------||----------|---------------|----------|----------------||
|-------------||----------|---------5-4-3-|----------|---------5-4-3--||
|-(2)---------||----------|---------------|----------|----------------||
|----------3--||----------|---------------|----------|----------------||


   2nd, 3rd Verse
    S S S S Q  S S S S Q    S S S S Q  S S S S S S E   S S S S Q  S S S S Q
||------------------------|--------------------------|------------------------|
||o-----------------------|--------------------------|------------------------|
||o---------2----------3--|---------0----------5-4-3-|---------2----------3---|
||--2-2-2-2----2-2-2-2----|-2-2-2-2----2-2-2-2-------|-2-2-2-2----2-2-2-2-----|


  S S S S Q  S S S S S S E   S S S S Q  S S S S Q    S S S S Q  S S S S S S E
|--------------------------|-----------------------|---------------------------|
|--------------------------|-----------------------|---------------------------|
|---------0----------5-4-3-|---------2----------3--|---------0----------5-4-3--|
|-2-2-2-2----2-2-2-2-------|-2-2-2-2----2-2-2-2----|-2-2-2-2----2-2-2-2--------|


  S S S S Q  S S S S E. S   E. S S S S S S S S S S S E
|-------------------------|-----------------------------||
|---------2----------3----|-6------------------------3-o||
|---------2----------3----|-6----0-3-2---2-1-------3---o||
|-2-2-2-2----2-2-2-2----2-|-6--2-------6-----3-2-3------||


  S S S S S S S S S S S S a S S E
|----------------------------------|
|-------------------7-6-5-4s5-4-3--|
|-2-----3-----0--------------------|
|---2-2---2-2---2-2----------------|


  S S S S S S S S S S S S a S S E   S S S S S S S S S S S S a S S E
|---------------------------------|---------------------------------|
|-------------------7-6-5-4s5-4-3-|-------------------7-6-5-4s5-4-3-|
|-2-----3-----0-------------------|-2-----3-----0-------------------|
|---2-2---2-2---2-2---------------|---2-2---2-2---2-2---------------|


                      |-3--| |3-|
  S S S S S S S S  E  S  S S E  S  S  S
|--------------------12-----------11----||
|--------------------11-11-----10----10-||
|-2-----3-----0---10-------x-9----------||
|---2-2---2-2---2-----------------------||


   4th, 5th Verse
    S S S S Q  S S S S Q    S S S S Q  S S S S S S E   S S S S Q  S S S S Q
||------------------------|--------------------------|------------------------|
||o-----------------------|--------------------------|------------------------|
||o---------2----------3--|---------0----------5-4-3-|---------2----------3---|
||--2-2-2-2----2-2-2-2----|-2-2-2-2----2-2-2-2-------|-2-2-2-2----2-2-2-2-----|


  S S S S Q  S S S S S S E   S S S S Q  S S S S Q    S S S S Q  S S S S S S E
|--------------------------|-----------------------|---------------------------|
|--------------------------|-----------------------|---------------------------|
|---------0----------5-4-3-|---------2----------3--|---------0----------5-4-3--|
|-2-2-2-2----2-2-2-2-------|-2-2-2-2----2-2-2-2----|-2-2-2-2----2-2-2-2--------|


  S S S S Q  S S S S E. S   E. S S S S S S S S S S S E
|-------------------------|-----------------------------||
|---------2----------3----|-6------------------------3-o||
|---------2----------3----|-6----0-3-2---2-1-------3---o||
|-2-2-2-2----2-2-2-2----2-|-6--2-------6-----3-2-3------||


  S S S S S S S S S S S S a S S E
|----------------------------------|
|-------------------7-6-5-4s5-4-3--|
|-2-----3-----0--------------------|
|---2-2---2-2---2-2----------------|


  S S S S S S S S S S S S a S S E   S S S S S S S S S S S S a S S E
|---------------------------------|---------------------------------|
|-------------------7-6-5-4s5-4-3-|-------------------7-6-5-4s5-4-3-|
|-2-----3-----0-------------------|-2-----3-----0-------------------|
|---2-2---2-2---2-2---------------|---2-2---2-2---2-2---------------|


  S S S S S S e H       e E Q  H      e E Q  Q  E E
|--------------------||-------------|---------------|
|--------------------||-------------|---------------|
|-2-----3-----0------||-------------|---------------|
|---2-2---2-2--------||-2-----------|-2-----------3-|


                                Guitar Solo
  e E Q  H      e E Q  Q  E E    E S S S S E +E  E S S S S
|-------------|---------------||---------------------------|
|-------------|---------------||---------------------------|
|-------------|---------------||-----------0-(0)-----------|
|-2-----------|-2-----------3-||-4-2-4-4-2-------2-5-3-4s5-|


  E S S S S S S E E S S E   S S S S S S E +E  E S S S S
|-------------------------|-----------------------------|
|-------------------------|-----------------------------|
|-----------0h2-0---------|-----------------------------|
|-4-2-4-4-2-------2-5-3-5-|-2-2-2-2-2-2-5-(5)-0-3-1-2s3-|


  S S S S S S S S E E S S E
|----------------------------||
|----------------------------||
|----------------------------||
|-2-2-2-2-2-2-5s7-5-0-3-1-3--||


  a E. S E S S +E  e e e   a E S S +S  S S S E E E E
|------------------------|---------------------------|
|------------------------|---------------------4-2---|
|-1s2--2-2-2-3-(3)-3-3-3-|-3s4-4-4-(4)-4-4-5-5-----3-|
|------------------------|---------------------------|


  a E. S E S S +E  e e e   E S S S S S S +E  E E E
|------------------------|--------------------------|
|------------------------|--------------------------|
|-1s2--2-2-2-3-(3)-3-3-3-|-------------------4-3-2--|
|------------------------|-4-4-4-4-4-4s5-(5)--------|


  a E. S S S S S +E  e e e   a E S S S S S S +E  E E E
|--------------------------|---------------------------|
|--------------------------|---------------------4-2---|
|-1s2--2-2-2-2s3-(3)-3-3-3-|-3s4-4-4-4-4-4-5-(5)-----3-|
|--------------------------|---------------------------|


  a E S S E S S E E E E   E S S S S S S E S S E E
|-----------------------|--------------------------||
|-----------------------|-----------------4-4-2----||
|-1s2-2-2-2-2-3-3-3-3-3-|-----------------------2--||
|-----------------------|-4-4-4-4-4-4s5-5----------||


    S S S S S S S S S S S S S S S S   S S S S S S S S S S S S S S E
||----------------------------------|--------------------------------||
||o---------------------------------|-------------------------------o||
||o-2-------5-4-3---3-------5-4-3---|-2-------5-4-3---7-6-5---5-4-3-o||
||----2-2-2-------2---2-2-2-------2-|---2-2-2-------2-------2--------||


  a E S S S S S S e e e e   a E S S S S S S +E  E E E
|-------------------------|---------------------------|
|-------------------------|---------------------4-2---|
|-1s2-2-2-2-2-2-3-3-3-3-3-|-3s4-4-4-4-4-4-5-(5)-----3-|
|-------------------------|---------------------------|


  a E S S S S S S e e e e   E S S S S S S E E E E
|-------------------------|-----------------------||
|-------------------------|-----------------4-2---||
|-1s2-2-2-2-2-2-3-3-3-3-3-|---------------------2-||
|-------------------------|-4-4-4-4-4-4s5-5-------||


  S S S S S S E +E  E S S a E   S S S S S S S S E E S S S S
|-----------------------------|-----------------------------|
|-----------------------------|-----------------------------|
|-------------0-(0)-----------|-------------0h2-0-----------|
|-4-2-3-4---4-------2-5-3-4s5-|-4-2-3-4---2-------2-5-3-4s5-|


  S S S S S S E +E  E S S S S
|-------------------------------|
|-------------------------------|
|-------------------------------|
|-2-2-2-2-2-2-5-(5)-0-3-1-2s3---|


  S S S S S S S S E E S S E   S S S S S S S S S S S S a S S E
|---------------------------|---------------------------------|
|---------------------------|-------------------7-6-5-4s5-4-3-|
|---------------------------|-2-----3-----0-------------------|
|-2-2-2-2-2-2-5s7-5-0-3-1-3-|---2-2---2-2---2-2---------------|


  S S S S S S S S S S S S a S S E
|---------------------------------|
|-------------------7-6-5-4s5-4-3-|
|-2-----3-----0-------------------|
|---2-2---2-2---2-2---------------|


                                   3/4
  S S S S S S S S S S S S a S S E   S S S S S S S S S S S S
|---------------------------------|-------------------------||
|-------------------7-6-5-4s5-4-3-|-------------------------||
|-2-----3-----0-------------------|-2-----3-----0---2-------||
|---2-2---2-2---2-2---------------|---2-2---2-2---2---5-4-3-||


 6th Verse
  Double time Q=126
 4/4
  Q  E E E E E E   E E Q  E E E E   Q  E E E E E E   E E Q  E E E E
|----------------|----------------|----------------|----------------|
|----------------|----------------|----------------|----------------|
|----------------|----------------|----------------|----------------|
|-2--2-2-2-2-2-2-|-2-2-3--3-3-3-3-|-2--2-2-2-2-2-2-|-2-2-1--1-1-1-1-|


                                                    2/4
  Q  E E E E E E   E E Q  E E E E   Q  E E E E E E   E E Q
|----------------|----------------|----------------|---------|
|----------------|----------------|----------------|---------|
|----------------|----------------|----------------|---------|
|-2--2-2-2-2-2-2-|-2-2-3--3-3-3-3-|-2--2-2-2-2-2-2-|-2-2-1---|


 4/4
  E E E E E E E E   E E E E E E E E   E E E E E E E E   W          Q  Q  H
|-----------------|-----------------|-----------------|----------|------------*|
|-----------------|-----------------|-----------------|----------|------------*|
|-2---------2-----|-----2---------2-|---------2-------|----------|------------*|
|---5-4-3-2---5-4-|-3-2---5-4-3-2---|-5-4-3-2---5-4-3-|-2--------|-2----------*|



Duration Legend
---------------
W - whole; H - half; Q - quarter; E - 8th; S - 16th; T - 32nd; X - 64th; a - acciaccatura
+ - note tied to previous; . - note dotted; .. - note double dotted
Uncapitalized letters represent notes that are staccato (1/2 duration)
Irregular groupings are notated above the duration line
Duration letters will always appear directly above the note/fret number it represents the
duration for.  Duration letters with no fret number below them represent rests.  Multi-
bar rests are notated in the form Wxn, where n is the number of bars to rest for.  Low
melody durations appear below the staff

Tablature Legend
----------------
 h   - hammer-on
 p   - pull-off
 b   - bend
 pb  - pre-bend
 r   - bend release (if no number after the r, then release immediately)
 /\  - slide into or out of (from/to "nowhere")
 s   - legato slide
 S   - shift slide
 - natural harmonic
[n]  - artificial harmonic
n(n) - tapped harmonic
 ~   - vibrato
 tr  - trill
 T   - tap
 TP  - trem. picking
 PM  - palm muting
\n/  - tremolo bar dip; n = amount to dip
 \n  - tremolo bar down
 n/  - tremolo bar up
/n\  - tremolo bar inverted dip
 =   - hold bend; also acts as connecting device for hammers/pulls
 <> - volume swell (louder/softer)
 x   - on rhythm slash represents muted slash
 o   - on rhythm slash represents single note slash

Misc Legend
-----------
 |  - bar
||  - double bar
||o - repeat start
o|| - repeat end
*|  - double bar (ending)
 :  - bar (freetime)
 $  - Segno
 &  - Coda
Tempo markers -  = BPM(8/16=s8/s16), where s8 = swing 8ths, s16 = swing 16ths

comments
We did not receive enough feedback on this tab! Please rate:
print report bad tab
1 2 3 4 5
I want to post or [tab]
guest
You may want to rate the tab now too:
select rating
Please do not post tabs as comments. Select "correction" instead!