Oops, an error
Loading. Please wait.

Go To Hell tab

version 2
version 2

Whole song

Interactive

40,389 views 15 this week
21 commentsread comments
1 2 3 4 5
x 15
add to favorites
×
Save as Personal and add changes to this tab that will be seen only by you. Learn more ›
×
You can save this tab as Personal to edit and correct it or add notes. All changes will be seen only by you. Learn more »
launch autoscroll
font size
0
reset
how to read this tab
guitar tuner
backing track
0:00
0:00
edit
Autoscroll
slow
fast
+/-
esc
set tempo
stop
Author
Difficulty
                                GO TO HELL
                                 Megadeth
                  (From The 1995 Album Hidden Treasures)

Transcribed by Jonathan Casper (confinedforever)

Gtr 1 - Tuning Standard - (E A D G B E)




Riff 1
Guitar 1
e|----------------------------|
B|----------------------------|
G|----------------------------|
D|----------------------------|
A|-2-------/7~----2-------/6~-|
E|---3-2-1----------3-2-1-----|
   * * * *        * * * *
e|----------------------------|
B|----------------------------|
G|----------------------------|
D|----------------------------|
A|-2-------/5~----2-------/4~-|
E|---3-2-1----------3-2-1-----|
   * * * *        * * * *
e|--------------------|
B|--------------------|
G|--------------------|
D|---------5--------4-|
A|-2-------3--------2-|
E|---3-2-1------------|
   * * * *
e|-----------------|
B|-----------------|
G|-----------------|
D|-4-4-4-4-4-------|
A|-2-2-2-2-2-------|
E|-----------3-2-1-|
   * * * * * * * * 

Guitar 2
e|----------------------------|
B|----------------------------|
G|----------------------------|
D|------------------------/4~-|
A|-2-------/7~----2-----------|
E|---3-2-1----------3-2-1-----|
   * * * *        * * * *
e|----------------------------|
B|----------------------------|
G|----------------------------|
D|---------/5~------------/7~-|
A|-2--------------2-----------|
E|---3-2-1----------3-2-1-----|
   * * * *        * * * *
e|---------------------3-6-7-6-7-6-7-6--|
B|-------------------5------------------|
G|---------------3-5--------------------|
D|-----------2-5------------------------|
A|-2-------3----------------------------|
E|---3-2-1------------------------------|
   * * * * * * * * * * * 
e|-7-5------------------|
B|-----7-4--------------|
G|---------4------------|
D|-----------5-4-3------|
A|------------------7~--|
E|----------------------|
           * * * *  


Riff 2
e|---------------------------------|
B|---------------------------------|
G|-------0---------------0---------|
D|-----4-----4-2-------4-----4-2---|
A|---2-----3-----3---4-----5-----3-|
E|-0---------------0---------------|

e|---------------------------------|
B|---------------------------------|
G|-------0---------------0---------|
D|-----4-----4-2-------4---4-------|
A|---2-----3-----3---1-----2-------|
E|-0---------------2---------3-2-1-|


Riff 3
e|-----------------------|
B|-----------------------|
G|-----------------------|
D|-2------------2---2-3--|
A|-2------------2---2-3--|
E|----0-0-0-0-0---0------|
      * * * * *   *
   "Now I lay me..."
e|-----------------------|
B|-----------------------|
G|-----------------------|
D|-2------------2---2-1--|
A|-2------------2---2-1--|
E|----0-0-0-0-0---0------|
      * * * * *   *
   "I pray the Lord..."


Riff 1a
Guitar 1
e|----------------------------|
B|----------------------------|
G|----------------------------|
D|----------------------------|
A|-2-------/7~----2-------/6~-|
E|---3-2-1----------3-2-1-----|
   * * * *        * * * *
e|----------------------------|
B|----------------------------|
G|----------------------------|
D|----------------------------|
A|-2-------/5~----2-------/4~-|
E|---3-2-1----------3-2-1-----|
   * * * *        * * * *
e|-----------------------------|
B|-----------------------------|
G|-----------------------------|
D|---------5--------4----------|
A|-2-------3--------2--------3-|
E|---3-2-1-------------------1-|
   * * * *

Guitar 2
e|----------------------------|
B|----------------------------|
G|----------------------------|
D|------------------------/4~-|
A|-2-------/7~----2-----------|
E|---3-2-1----------3-2-1-----|
   * * * *        * * * *
e|----------------------------|
B|----------------------------|
G|----------------------------|
D|---------/5~------------/7~-|
A|-2--------------2-----------|
E|---3-2-1----------3-2-1-----|
   * * * *        * * * *
e|---------------------------------|
B|---------------------------------|
G|---------2b3-2b3-2b3-2b3-2b3~~---|
D|---------------------------------|
A|-2-----------------------------3-|
E|---3-2-1-----------------------1-|
   * * * *  


Riff 4 (Guitar 2 does a pick slide before verse)
e|-----------------------|
B|-----------------------|
G|-----------------------|
D|---------2----------3--|
A|---------2----------3--|
E|-0-0-0-0----0-0-0-0----|
   * * * *    * * * *
e|--------------------------|
B|--------------------------|
G|--------------------------|
D|---------0----------5-4-3-|
A|---------0----------5-4-3-|
E|-0-0-0-0----0-0-0-0-------|
   * * * *    * * * *


Riff 4a
e|-----------------------|
B|-----------------------|
G|-----------------------|
D|---------2----------3--| -------|
A|---------2----------3--|        |
E|-0-0-0-0----0-0-0-0----|        |
   * * * *    * * * *             |
   "Not going to..."              |--> Play 3x
e|--------------------------|     |
B|--------------------------|     |
G|--------------------------|     |
D|---------0----------5-4-3-| ----|
A|---------0----------5-4-3-|
E|-0-0-0-0----0-0-0-0-------|
   * * * *    * * * *
   "...they pull my plug..."

e|---------------------------|
B|---------------------------|
G|---------------------------|
D|---------2----------3----6-|
A|---------2----------3----6-|
E|-0-0-0-0----0-0-0-0----0---|
   * * * *    * * * *    *
   "...lays..."
e|--------------------------|
B|--------------------------|
G|--------------------------|
D|-----------------------3--|
A|-1-0-3-2---2-1-------3-3--|
E|---------4-----1-0-1------|
   * * * * * * * * * * *
                    "Go to hell!"



Riff 5 (Solo Rhythm)             x3
e|--------------------------------|
B|--------------------------------|
G|--------------------------------|
D|-2-----3-----0-----7-6-5--5-4-3-|
A|-2-----3-----0-----7-6-5--5-4-3-|
E|---0-0---0-0---0-0--------------|
     * *   * *   * * 
e|---------------|
B|---------------|
G|---------------|
D|-2-----3-----0-|
A|-2-----3-----0-|
E|---0-0---0-0---|
     * *   * * 


Solo (Friedman)
e|-----------------7-------------------| 
B|-------------5h6---6p5-------5-------| 
G|-7b9--7b9~~------------7-6h7---7p6p4-| 
D|-------------------------------------| 
A|-------------------------------------| 
E|-------------------------------------| 
 
e|------------------------------------------| 
B|------------------------------------------| 
G|-6/9\6p4---4-6p4---4----------------------| 
D|---------5-------5---5p4------------------| 
A|-------------------------7b9r7~~----------| 
E|-------------------------------------//\\-|

e|-------------15h19-21p19p15----------|
B|----------17----------------17-------|
G|----16h18----------------------18p16-|
D|-17----------------------------------|
A|-------------------------------------|
E|-------------------------------------|

e|-------------15-17-18p17-15----------|
B|----------17----------------17-15-15-|
G|----16h18----------------------------|
D|-17----------------------------------|
A|-------------------------------------|
E|-------------------------------------|

e|-17b19r17-17-15-----------|
B|----------------17b20r17\-|
G|--------------------------|
D|--------------------------|
A|--------------------------|
E|--------------------------|

End Solo


Play Riff 4a   "I saw my funeral..."
Play Riff 5    Solo Rhythm


Solo (Friedman)
e|----------------------------------------------------|
B|---------------------------------------------8b12r9-|
G|-------------9-8-7----------------------------------|
D|-----8~--5~--------9-8-7--7-5-7-7b9r7-5-7-5---------|
A|-7~-------------------------------------------------|
E|----------------------------------------------------|

e|----------------------5-7-8-5-8h10p8p7-8-5-|
B|-----------------7-8-----------------------|
G|-x-7--x-8--8/9-9---------------------------|
D|-------------------------------------------|
A|-------------------------------------------|
E|-------------------------------------------|

e|-12p10p8-------10p8p7---------|
B|--------12p10p8------10p8p7---|
G|----------------------------9-|
D|------------------------------|
A|------------------------------|
E|------------------------------|

End Solo


Riff 6
e|-----------------------------|
B|-----------------------------|
G|-----------------------------|
D|-2-----2-----/5----0-2-0-2/3-|
A|-2-----2-----/5----0-2-0-2/3-|
E|---0-0---0-0-----------------|
     * *   * *         * *
e|----------------------------|
B|----------------------------|
G|----------------------------|
D|-2-----2-----5h7-5--0-2-0-3-|
A|-2-----2-----5h7-5--0-2-0-3-|
E|---0-0---0-0----------------|
     * *   * *          * * 


Riff 7 (Solo Rhythm)
e|-----------------------------|
B|-----------------------------|
G|-----------------------------|
D|-----------------------------|
A|-4-----4-----/7------4---4/5-|
E|-2-0-0-2-0-0-/5----0-2-0-2/3-|
     * *   * *         * *
e|----------------------------|
B|----------------------------|
G|----------------------------|
D|----------------------------|
A|-4-----4-----7/9-7----4---5-|
E|-2-0-0-2-0-0-5/7-5--0-2-0-3-|
     * *   * *          * *
e|-----------------------------|
B|-----------------------------|
G|-----------------------------|
D|-2-----2-----/5----0-2-0-2/3-|
A|-2-----2-----/5----0-2-0-2/3-|
E|---0-0---0-0-----------------|
     * *   * *         * *
e|----------------------------|
B|----------------------------|
G|----------------------------|
D|-2-----2-----5h7-5--0-2-0-3-|
A|-2-----2-----5h7-5--0-2-0-3-|
E|---0-0---0-0----------------|
     * *   * *          * * 


Solo (Mustaine)
e|-----2-----------14-----------2--------|
B|-------5p2---------17p14--------5p2----|
G|-4b6--------16b18---------4b6-------2^-|
D|---------------------------------------|
A|---------------------------------------|
E|---------------------------------------|

e|------------------------------------|
B|------------------------------------|
G|-------2--------4--------2----------|
D|-4p2---2--4p2---4--4p2---2--4p2---2-|
A|-----4--------4--------4--------4-2-|
E|------------------------------------|

e|--------------------------------------------------|
B|--------------------------------------------------|

G|-2b4-{2}{2}{2}{2}{2}-(4)r3-{2}{2}{2}-(3)r2-{2}{2}-|
D|-a----a--a--a--a--a---------a--a--a---------a--a--|
A|--------------------------------------------------|
E|--------------------------------------------------|

e|------------------------|
B|------------------------|
G|-0tr2-------------------|
D|-------0tr2-------------|
A|-------------0tr2-------|
E|-------------------0tr3-|

End Solo


Riff 8 (Solo Rhythm)
e|------------------------|
B|------------------------|
G|--------0-------0-------|
D|------4---4-------4-2---|
A|-0h2--------2h3-------3-|
E|------------------------|

e|------------------------|
B|------------------------|
G|--------0-------0-------|
D|------4---4-------4-2---|
A|-3/4--------4/5-------3-|
E|------------------------|

e|------------------------|
B|------------------------|
G|--------0-------0-------|
D|------4---4-------4-2---|
A|-0h2--------2h3-------3-|
E|------------------------|

e|------------------------|
B|------------------------|
G|--------0-------0-------|
D|------4---4-------4-2---|
A|----------------------2-|
E|-0h2--------2h3---------|


Solo (Friedman)
e|-----------------------------12-15p12---15p12---16b18-16b18~-|
B|---------------------------12--------12------12--------------|
G|------9-11-11b12r11~~--4/12----------------------------------|
D|-9~-9--------------------------------------------------------|
A|-------------------------------------------------------------|
E|-------------------------------------------------------------|

e|-------------------------------------|
B|-17p12-15p12-17p12-15p12-------------|
G|-------------------------14b16r14-12-|
D|-------------------------------------|
A|-------------------------------------|
E|-------------------------------------|

e|--------------15-16-17-----------------17-15-------|
B|------17-18-19--------20b22--[20]22r21-------17b19-|
G|-14/16---------------------------------------------|
D|---------------------------------------------------|
A|---------------------------------------------------|
E|---------------------------------------------------|

e|-----------------------------------15---13---14---|
B|-[17]18p15-17p15----14b15--(15)r14---14---15---13-|
G|-----------------16-------------------------------|
D|--------------------------------------------------|
A|--------------------------------------------------|
E|--------------------------------------------------|

e|-----------12----------12----------12--12-15-|
B|-12-15b17----12-15b17----12-15b17----15------|
G|---------------------------------------------|
D|---------------------------------------------|
A|---------------------------------------------|
E|---------------------------------------------|

e|-17p12-----------------15p12------------------------|
B|------15p12--12--12-15------12----------------------|
G|-----------14--14-------------14--12\11--(11)b12~~\-|
D|----------------------------------------------------|
A|----------------------------------------------------|
E|----------------------------------------------------|

e|------------------------------------------|
B|------------------------------------------|
G|--7/9-9-9-9/12-12-12-12/16-16-16-16/19-19-|
D|------------------------------------------|
A|------------------------------------------|
E|------------------------------------------|

e|-----------------------------15-17-19-20-22b24~~-|
B|---------------------------17--------------------|
G|-19\18-(18)b21r18p16--16-19----------------------|
D|--------------------19---------------------------|
A|-------------------------------------------------|
E|-------------------------------------------------|

End Solo


Riff 9 (Solo Rhythm)
e|-------------------------------|
B|-------------------------------|
G|-------------------------------|
D|-2-------5-4-3--3-------5-4-3--|
A|-2-------5-4-3--3-------5-4-3--|
E|---0-0-0----------0-0-0--------|
     * * *          * * *
e|-----------------------------|
B|-----------------------------|
G|-----------------------------|
D|-0-------5-4-3--7-6-5--5-4-3-|
A|-0-------5-4-3--7-6-5--5-4-3-|
E|---0-0-0---------------------|
     * * *


Solo (Mustaine)
e|------------------------------------|
B|------------------------------------|
G|-4p2p0----4p2p0----5p2p0----5p2p0---|
D|-------4--------2--------4--------2-|
A|------------------------------------|
E|------------------------------------|

e|----------------------------------------|
B|-------------------3p1p0----------------|
G|-6p4p0----6p4p0---------4p2p0-----------|
D|-------4--------2------------4p2p0------|
A|----------------------------------3p2p0-|
E|----------------------------------------|

e|------------------------------------|
B|------------------------------------|
G|-4p2p0----4p2p0----5p2p0----5p2p0---|
D|-------4--------2--------4--------2-|
A|------------------------------------|
E|------------------------------------|

e|----------------------------------------|
B|-------------------3p1p0----------------|
G|-6p4p0----6p4p0---------4p2p0-----------|
D|-------4--------2------------4p2p0------|
A|----------------------------------3p2p0-|
E|----------------------------------------|

End Solo


Riff 8a (Solo Rhythm)
e|------------------------|
B|------------------------|
G|--------0-------0-------|
D|------4---4-------4-2---|
A|-0h2--------2h3-------3-|
E|------------------------|

e|------------------------|
B|------------------------|
G|--------0-------0-------|
D|------4---4-------4-2---|
A|-3/4--------4/5-------3-|
E|------------------------|

e|------------------------|
B|------------------------|
G|--------0-------0-------|
D|------4---4-------4-2---|
A|-0h2--------2h3-------3-|
E|------------------------|

e|-----------------------|
B|-----------------------|
G|--------0-------0------|
D|------4---4-------4-2--|
A|-----------------------|
E|-0h2--------2h3--------|


Solo (Friedman)
e|----------------------------------17-19-22p19p17------|
B|-------------17-19-18b20~~--17-20---------------20-17-|
G|-15b16~-{15}------------------------------------------|
D|------------------------------------------------------|
A|------------------------------------------------------|
E|------------------------------------------------------|

e|-22p19p17---21b22r21b22~~--22b24~~-|
B|---------20------------------------|
G|-----------------------------------|
D|-----------------------------------|
A|-----------------------------------|
E|-----------------------------------|

e|-22-21-17--21-19-17--19\-17-14--17\-15-12--15\-14-10--14-|
B|---------------------------------------------------------|
G|---------------------------------------------------------|
D|---------------------------------------------------------|
A|---------------------------------------------------------|
E|---------------------------------------------------------|

e|-18-15------------14-13-12--------------------------|
B|-------17-15---------------16-15-14-----------------|
G|-------------16\--------------------16-x-16b18r16~~-|
D|----------------------------------------------------|
A|----------------------------------------------------|
E|----------------------------------------------------|

End Solo


Play Riff 7   Solo Rhythm

Riff 5a (Solo Rhythm)            x3
e|--------------------------------|
B|--------------------------------|
G|--------------------------------|
D|-2-----3-----0-----7-6-5--5-4-3-|
A|-2-----3-----0-----7-6-5--5-4-3-|
E|---0-0---0-0---0-0--------------|
     * *   * *   * *
e|-------------------------|
B|-------------------------|
G|-------------------------|
D|-2-----3-----0-----------|
A|-2-----3-----0---2-------|
E|---0-0---0-0---0---3-2-1-|
     * *   * *   *   * * * 


Solo (Mustaine)
e|-19b21-19b21--19b21-19b21--19b21-19b21--19b21-19b21-|
B|----------------------------------------------------|
G|----------------------------------------------------|
D|----------------------------------------------------|
A|----------------------------------------------------|
E|----------------------------------------------------|

e|----------------------------------------------|
B|----------------------------------------------|
G|-18t17p16p15p14-18t17p16p15p14-18t17p16p15p14-|
D|----------------------------------------------|
A|----------------------------------------------|
E|----------------------------------------------|

e|----------------------------------------------|
B|----------------------------------------------|
G|-18t17p16p15p14-18t17p16p15p14-18t17p16p15p14-|
D|----------------------------------------------|
A|----------------------------------------------|
E|----------------------------------------------|

e|-17p12-----------------------------|
B|------15-12h17p12-15p12---12h15p12-|
G|-----------------------15----------|
D|-----------------------------------| 
A|-----------------------------------|
E|-----------------------------------|

e|-17p12-----------------------------|
B|------15-12h17p12-15p12---12h15p12-|
G|-----------------------15----------|
D|-----------------------------------| 
A|-----------------------------------|
E|-----------------------------------|

e|-17p12-----------------------------|
B|------15-12h17p12-15p12---12h15p12-|
G|-----------------------15----------|
D|-----------------------------------| 
A|-----------------------------------|
E|-----------------------------------|

e|-17p12-----------------------------|
B|------15-12h17p12-15p12---12h15p12-|
G|-----------------------15----------|
D|-----------------------------------| 
A|-----------------------------------|
E|-----------------------------------|

[the next part is tremolo picked, just glide your hand up
the e string using this pattern]
e|-5-4-3-3-6-5-4-4-7-6-5-5-8-7-6-6-9-8-7-10-9-8-|
B|----------------------------------------------|
G|----------------------------------------------|
D|----------------------------------------------|
A|----------------------------------------------|
E|----------------------------------------------|

e|-9-8-7-7-10-9-8-8-11-10-9-9-12-11-10-10-13-12-11-14-13-12-|
B|----------------------------------------------------------|
G|----------------------------------------------------------|
D|----------------------------------------------------------|
A|----------------------------------------------------------|
E|----------------------------------------------------------|

e|-13-12-11-11-14-13-12-12-15-14-13-13-16-15-14-14-17-16-15-18-17-16-|
B|-------------------------------------------------------------------|
G|-------------------------------------------------------------------|
D|-------------------------------------------------------------------|
A|-------------------------------------------------------------------|
E|-------------------------------------------------------------------|

e|-17-16-15-15-18-17-16-16-19-18-17-17-20-19-18-22-21-20-|
B|-------------------------------------------------------|
G|-------------------------------------------------------|
D|-------------------------------------------------------|
A|-------------------------------------------------------|
E|-------------------------------------------------------|

e|-24------------------------12--------------------|
B|--h-------------------------h--------------------|
G|-------------------------------------------------|
D|-------------------------------------------------|
A|-------------------------------------------------|
E|---------------------------------------------X\\-|

End Solo


Play Riff 3   "Now I lay me..."

Ending:
e|-------------------------------|
B|-------------------------------|
G|-------------------------------|
D|-------------------------------|
A|-2---------2---------2---------|
E|---3-2-1-0---3-2-1-0---3-2-1-0-|
     * * * * *       * * * 
e|-------------------------------|
B|-------------------------------|
G|-------------------------------|
D|--------------------9----------|
A|-2---------2--------7--------2-|
E|---3-2-1-0---3-2-1-----------0-|
     * *       * * * 



Notation:

10^        = bend a quarter step.
10b11      = bend a half step.
10b12      = bend a full step.
10b12r10   = bend and release.
[10]12     = pre-bend.
[10]12r10  = pre-bend and release.
{14}       = pick the 14th fret while holding the most 
             previous bend.
<17>       = touch the string above the 17th fret while 
             previous note(s) is(are) still ringing.

10b13*     = tremolo bar bend, from the 10th fret to the 13th fret.
7d4*       = tremolo bar dive, from the 7th fret to the 4th fret. 
12~*       = tremolo bar vibrato.

x   =  mute with fret-hand
*   =  palm mute
X\\ =  pick slide
h   =  hammer-on
p   =  pull-off
~   =  vibrato
t   =  finger tap
/   =  slide up
\   =  slide down
h.  =  natural harmonics
a   =  artificial harmonics
(9) =  ghost note
tm  =  trem picking
tr  =  trill

 


            
            
Suggest correction
Creating personal tab
Creating personal tab
You can edit any tab online and save it as your Personal.

You can edit, replace or remove any tab part or add personal notes – all changes will be seen only by you.

Personal tabs can be accessed anytime from any device, even offline.
Learn more »
comments
print report bad tab
21 comments total. Showing first comments.
0 reply
tman4000 72 May 26, 2007 06:49 PM

your a guy? myspace tells the truth..

0 reply
confinedforever 977 May 27, 2007 04:20 AM

huh?

-2 reply
tman4000 72 Jun 07, 2007 02:24 PM

look at the myspace page of "confinedforever"...he looks like a chick

guest
You may want to rate the tab now too:
select rating
Wanna post a correction for this tab? Suggest correction