Oops, an error
Loading. Please wait.

Hangar 18 Tab

version 1
257,087 views 120 this week
15 commentsread comments
1 2 3 4 5
x 31
add to favorites
launch autoscroll
font size
0
reset
how to read this tab
guitar tuner
Autoscroll
slow
fast
+/-
esc
set tempo
stop
Help us to improve Ultimate-Guitar.com Take our survey!
×
Hangar 18 
(Dave Mustaine)
As performed by Megadeth on album "Rust In Piece"

Comment:
Here it is at last. I'd recommend you to listen to the record attentively while learning 
the solos 'cos I couldn't make ASCII tab completely precise in terms of timing 
(32's and 16's are not differed) and bends' height and length. Anyway I hope it's quiet 
understandable. If you want to play Dave's lead - get a 24-fret axe with high-output pickup 
to be shure that fast-picking of bended notes on 24th fret will be loud enough (and possible). 
Marty's leads are full of combinations of bends, releases, wide bends and vibratos so prepare 
to shake the hell out of your axe (and do it fast and clear). As for rhythm playing - intro 
and verse parts won't take much time to get into. You can even try to play verse riff alone 
though it won't sound as good as in double-guitar vesion. Instrumental section riffs are quiet 
quirky so again listen to the record. Good luck!

Intro

Played by downstrokes only

E|-1-1-1-1-1-1-1-1-|1-1-1-1-1-1-1-1-|1-1-1-1-1-1-1-1-|1-1-1-1-1-1-1-1-|
B|-2-2-2-2-2-2-2-2-|2-2-2-2-2-2-2-2-|3-3-3-3-3-3-3-3-|3-3-3-3-3-3-3-3-|
G|-3-3-3-3-3-3-3-3-|3-3-3-3-3-3-3-3-|3-3-3-3-3-3-3-3-|3-3-3-3-3-3-3-3-|
D|-----------------|----------------|----------------|----------------|
A|-----------------|----------------|----------------|----------------|
E|-----------------|----------------|----------------|----------------|

E|-1-1-1-1-1-1-1-1-|1-1-1-1-1-1-1-1-|5-5-5-5-5-5-5-5-|5-5-5-5-5-5-5-5-|
B|-3-3-3-3-3-3-3-3-|3-3-3-3-3-3-3-3-|3-3-3-3-3-3-3-3-|3-3-3-3-3-3-3-3-|
G|-4-4-4-4-4-4-4-4-|4-4-4-4-4-4-4-4-|5-5-5-5-5-5-5-5-|5-5-5-5-5-5-5-5-|
D|-----------------|----------------|----------------|----------------|
A|-----------------|----------------|----------------|----------------|
E|-----------------|----------------|----------------|----------------|

E|-5-5-5-5-5-5-5-5-|5-5-5-5-5-5-5-5-|6-6-6-6-6-6-6-6-|6-6-6-6-6-6-6-6-|
B|-6-6-6-6-6-6-6-6-|6-6-6-6-6-6-6-6-|6-6-6-6-6-6-6-6-|6-6-6-6-6-6-6-6-|
G|-7-7-7-7-7-7-7-7-|7-7-7-7-7-7-7-7-|7-7-7-7-7-7-7-7-|7-7-7-7-7-7-7-7-|
D|-----------------|----------------|----------------|----------------|
A|-----------------|----------------|----------------|----------------|
E|-----------------|----------------|----------------|----------------|

E|-7-7-7-7-7-7-7-7-|7-7-7-7-7-7-7-7-|8-8-8-8-8-8-8-8-|8-8-8-8-8-8-8--|
B|-6-6-6-6-6-6-6-6-|6-6-6-6-6-6-6-6-|8-8-8-8-8-8-8-8-|8-8-8-8-8-8-8--|
G|-7-7-7-7-7-7-7-7-|7-7-7-7-7-7-7-7-|9-9-9-9-9-9-9-9-|9-9-9-9-9-9-9-0|
D|-----------------|----------------|----------------|---------------|
A|-----------------|----------------|----------------|---------------|
E|-----------------|----------------|----------------|---------------|

E|-| ----1----5-------|(5)---------------|----1----6-------|
B|-| --3--------6-----|(6)---------------|--3--------6-----|
G|-|*2-----/7-----7---|(7)---------------|3-----/7-----7---|
D|-|*---------------0-|(0)---------------|---------------0-|
A|-| -----------------|------------------|-----------------|
E|-| -----------------|------------------|-----------------|

E|-(6)---------------|----1----7-------|(7)---------------|
B|-(6)---------------|--3--------6-----|(6)---------------|
G|-(7)---------------|4-----/7-----7---|(7)---------------|
D|-(0)---------------|---------------0-|(0)---------------|
A|-------------------|-----------------|------------------|
E|-------------------|-----------------|------------------|
                                       
                                      1.   (2 guitars)   2.
E|-----5----8-------|(8)--------------- ||5---------------|
B|---3--------8-----|(8)--------------- ||6-8-6-5-6-5-----|
G|-5-----/8-----9---|(9)---------------*||--9-7-5-7-5-7-5-|
D|----------------0-|(0)---------------*||------------8-7-|
A|------------------|------------------ ||----------------|
E|------------------|------------------ ||----------------|

    Rh. Fig. 1
E|-| ------------------|------------------|------------------|
B|-| ------------------|------------------|------------------|
G|-|*2-----/7-~--------|3-----/7-~--------|4-----/7-~--------|
D|-|*--0-0---------0-0-|--0-0---------0-0-|--0-0---------0-0-|
A|-| ------------------|------------------|------------------|
E|-| ------------------|------------------|------------------|

E|-| ------------------|------------------|------------------|
B|-| 3-----/6-~--------|3-----/6-~--------|3-----/6-~--------|
G|-|*------------------|------------------|------------------|
D|-|*--0-0---------0-0-|--0-0---------0-0-|--0-0---------0-0-|
A|-| ------------------|------------------|------------------|
E|-| ------------------|------------------|------------------|

=============================================================================
                End Rf1    
E|------------------- ||
B|------------------- ||
G|-5-----/7-~--------*||
D|---0-0---------0-0-*||
A|------------------- ||
E|------------------- ||

E|------------------- 1|
B|-5-----/8-~-------- ||
G|-------------------*||
D|---0-0---------0-0-*||
A|------------------- ||
E|------------------- ||

Verse 1.
Play Rf. Then play:

E|--------------------|-------------------|-------------------|
B|-6\-----3~----------|6\-----3~----------|6\-----3~----------|
G|----------------0-0-|---------------0-0-|---------------0-0-|
D|--------------------|-------------------|-------------------|
A|--------------------|-------------------|-------------------|
E|--------------------|-------------------|-------------------|

E|--------------------|-------------------|-------------------|
B|--------------------|-------------------|-------------------|
G|-7\-----2--~--------|7\-----3--~--------|7\-----4--~--------|
D|----------------0-0-|---------------0-0-|---------------0-0-|
A|--------------------|-------------------|-------------------|
E|--------------------|-------------------|-------------------|

=============================================================================

E|-----------------15b-|
B|-6p-5---5------------|
G|---------------------|
D|---------------------|
A|---------------------|
E|---------------------|

E|---------------------|
B|---------------------|
G|-7p-5---5-------\-0--|
D|---------------------|
A|---------------------|
E|---------------------|

Solo 1. (Marty)

                                        Wide bends (2 tones)
E|-------------------------|--------------------------------|
B|-(15)-~--------15b---15b-|----r--(15)---------------------|
G|-------------------------|-----------14-17b-r17b-r17-14---|
D|-------------------------|--------------------------------|
A|-------------------------|--------------------------------|
E|-------------------------|--------------------------------|

   Rh. Fig.2
E|-------------------------|--------------------------------|
B|-------------------------|--------------------------------|
G|---------2------2-----2--|-----3--------------3---------3-|
D|-------0-----0-----------|--0------------0----------------|
A|---0-------0-------0-----|1-----------1------------1------|
E|-------------------------|--------------------------------|

=============================================================================
                                                            Wide bend (1.5 step)
E|----15-17h-20-17-20-17----------|------------------------------------|
B|-----------------------20-20b---|(20)---20-p18-18-b----r18-----------|
G|-17-----------------------------|--------------------------19-b--r19-|
D|--------------------------------|------------------------------------|
A|--------------------------------|------------------------------------|
E|--------------------------------|------------------------------------|

E|--------------------------------|------------------------------------|
B|--------------------------------|------------------------------------|
G|--------4------------4--------4-|------------3-----------3---------3-|
D|-----0---------0----------------|-----0--------------0---------------|
A|--2---------2--------------2----|--1---------------1-----------1-----|
E|--------------------------------|------------------------------------|

=============================================================================

E|--------------------|------------------------|-------------------|
B|-----10-----10---10-|------12-------12----12-|----10-----10---10-|
G|--------------------|------------------------|-------------------|
D|-8-8----8-8----8----|10-10----10-10----10----|8-8----8-8----8----|
A|--------------------|------------------------|-------------------|
E|--------------------|------------------------|-------------------|

E|--------------------|------------------------|-------------------|
B|--------------------|------------------------|-------------------|
G|------2------2----2-|-------3--------3-----3-|-----4------4----4-|
D|---0------0---------|----0--------0----------|--0------0---------|
A|-0------0------0----|-1--------1--------1----|2------2------2----|
E|--------------------|------------------------|-------------------|

=============================================================================

E|-----------------|
B|-----9-----9---9-|
G|-----------------|
D|-7-7---7-7---7---|
A|-----------------|
E|-----------------|

             End RF2
E|-----------------|
B|-----------------|
G|-----5-----5---5-|
D|---0-----0-------|
A|-3-----3-----0---|
E|-----------------|

  W/RF2
E|-17-p13-10----------10-h13-17-p13-17-p13-17-p13-10-13|
B|-----------10----10----------------------------------|
G|--------------10-------------------------------------|
D|-----------------------------------------------------|
A|-----------------------------------------------------|
E|-----------------------------------------------------|

E|-18-p13-10----------10-h13-17-p13-15-12-h13-12-------|
B|-----------11----11----------------------------15-p13|
G|--------------10-------------------------------------|
D|-----------------------------------------------------|
A|-----------------------------------------------------|
E|-----------------------------------------------------|

E|-17-p13----16-p13----16-16b-------20b-|------20-p17-22b--~-----|
B|--------15--------15-------------x----|------------------------|
G|--------------------------------------|------------------------|
D|--------------------------------------|------------------------|
A|--------------------------------------|------------------------|
E|--------------------------------------|------------------------|

E|--------------------|------------------------|-------------------|
B|--------------------|------------------------|-------------------|
G|-----10-----10---10-|------12-------12----12-|----10-----10---10-|
D|--------------------|------------------------|-------------------|
A|-8-8----8-8----8----|10-10----10-10----10----|8-8----8-8----8----|
E|--------------------|------------------------|-------------------|

  C5
    2 guitars
E|-------------------------------------|
B|-10-p8-6-5-8-p6-5-3-6-p5-3-1-5-p3-1--|
G|-10-p9-7-5-9-p7-5-3-7-p5-3-2-5-p3-2-3|
D|------------------------------------5|
A|-------------------------------------|
E|-------------------------------------|

Verse 2. played like verse 1

Solo 2 (Marty)
W/RF2

E|-------------------12-|----------------------------|
B|-13b----------15------|16-b16-16b---b17-----r17-15-|
G|----------------------|----------------------------|
D|-----------x\---------|----------------------------|
A|----------------------|----------------------------|
E|----------------------|----------------------------|

E|------------------------------|------------------|----------------|
B|-18b---------18-p15-18-p15----|------------------|----------------|
G|---------------------------17-|17b---------------|----------------|
D|------------------------------|------------------|----------------|
A|------------------------------|------------------|----------------|
E|------------------------------|------------------|----------------|

E|-----------------|----------------|------------------|
B|-----------------|----------------|--------------20b-|
G|-----------------|----------------|------------------|
D|-----------------|----------------|------------------|
A|-----------------|----------------|------------------|
E|-----------------|----------------|------------------|

                                         ___3___  ____3___
E|----------------------17---|18~--------|--|--|--|-15h-17h-|
B|-(20)-----18-17-15---------|-----------|-15-17-18---------|
G|--------0----------14------|----------17------------------|
D|---------------------------|------------------------------|
A|---------------------------|------------------------------|
E|---------------------------|------------------------------|

                   ___3____
E|-19-16-----------|--|---|-----16-20b--r20|
B|-------18-15-----|--|--15-h18------------|
G|-------------16-13-h16-------------------|
D|-----------------------------------------|
A|-----------------------------------------|
E|-----------------------------------------|

E|-(20)-20b-r20-20b-(20)-~------|-------------------|
B|------------------------------|----10-----10---10-|
G|------------------------------|-------------------|
D|------------------------------|8-8----8-8----8----|
A|------------------------------|-------------------|
E|------------------------------|-------------------|

E|-------------------------|-------------------|
B|-------12-------12----12-|----10-----10---10-|
G|-------------------------|-------------------|
D|-10-10----10-10----10----|8-8----8-8----8----|
A|-------------------------|-------------------|
E|-------------------------|-------------------|

E|--------------------|------------------------|-------------------|
B|-----10-----10---10-|------12-------12----12-|----10-----10---10-|
G|--------------------|------------------------|-------------------|
D|-8-8----8-8----8----|10-10----10-10----10----|8-8----8-8----8----|
A|--------------------|------------------------|-------------------|
E|--------------------|------------------------|-------------------|

E|-----------------|
B|-----9-----9---9-|
G|-----------------|
D|-7-7---7-7---7---|
A|-----------------|
E|-----------------|

=============================================================================

             ____3_____  ___3___ ____3___
E|-----------|---|----|--|--|--|-13-16---|
B|-----------|---|----|--|-12-14---------|
G|-----------|---|---10-13---------------|
D|-----------9-h11-----------------------|
A|--------11-----------------------------|
E|-9-13---|------------------------------|
   --3-----

E|---------------------------------------|
B|---------------------------------------|
G|-----------6--------------6-------6----|
D|---------------------------------------|
A|-4----4----------4-----4-----4---------|
E|---------------------------------------|

=============================================================================

Solo 3 (Marty)

E|-----------------------------|
B|-15-------\13-13-----------12|
G|-----------------------------|
D|-12-------\10------10-10----9|
A|-----------------------------|
E|-----------------------------|

  Rh. Fig. 3
E|-----------------------------|
B|-----------------------------|
G|-----------------------------|
D|----7-7-7--------------7-8---|
A|--5-5-5-5---5--8-5-----5-6--5|
E|-----------------------------|

=============================================================================

E|-------------------------------------------------|
B|-12-/15-12---------------------------------------|
G|------------------------14-11-h12-p11----------14|
D|-----------15-12-\10-12---------------13-12--~---|
A|-------------------------------------------------|
E|-------------------------------------------------|

E|-------------------------------------------------|
B|-------------------------------------------------|
G|-------------------------------------------------|
D|------7-----7------7-------------------7----8----|
A|--5---5-----5------5-----5--8---5------5----6---5|
E|-------------------------------------------------|

=============================================================================

E|-14-/17-p14----------------11-/14-p11-----------|
B|------------16------------------------13--~-----|
G|---------------17---17-\11----------------------|
D|-----------------------------------------7-/--10|
A|------------------------------------------------|
E|------------------------------------------------|

E|------------------------------------------------|
B|------------------------------------------------|
G|------------------------------------------------|
D|------7------7----7--------------------7----8---|
A|--5---5------5----5------5--8---5------5----6--5|
E|------------------------------------------------|

=============================================================================

E|-------------11-15-14----11-10-------------|
B|----------13----------13-------10-13-12~---|
G|-------12----------------------------------|
D|-12-13-------------------------------------|
A|-------------------------------------------|
E|-------------------------------------------|

E|-------------------------------------------|
B|-------------------------------------------|
G|-------------------------------------------|
D|-----7-----7-----7-----------------7----8--|
A|--5--5-----5-----5-----5--8--5-----5----6-5|
E|-------------------------------------------|

=============================================================================

E|-14-p17-14-14-14-15-------14----------11-------10---|
B|--------------------16-16----15-15-15----13-13----11|
G|----------------------------------------------------|
D|----------------------------------------------------|
A|----------------------------------------------------|
E|----------------------------------------------------|

E|----------------------------------------------------|
B|----------------------------------------------------|
G|----------------------------------------------------|
D|---------7-----7-----7-----------------7-----8------|
A|------5--5-----5-----5-----5--8--5-----5-----6-----5|
E|----------------------------------------------------|

=============================================================================

                      ____3____
E|--------------------|---|---|---------------------|
B|-11-11-13-10-10-11-10-h11-p10----10---------------|
G|------------------------------12----12-12-b--12-b-|
D|--------------------------------------------------|
A|--------------------------------------------------|
E|--------------------------------------------------|

E|--------------------------------------------------|
B|--------------------------------------------------|
G|--------------------------------------------------|
D|-----7-----7-----7-------------------7-----8------|
A|--5--5-----5-----5------5---8--5-----5-----6-----5|
E|--------------------------------------------------|

=============================================================================

   ___3___   ___3__       __3__  ____3___   ____3____  ____3__ __3_
E|-|--|--|---|--|-|-------|---|--|---|------|---|---|--|---|--||---||
B|-7-h8-h10-p8-p7-|-7-h8-p7-/10-10-h11-h13-p11-p10--|-10-h11-p10-/13|
G|----------------8--------------------------------12---------------|
D|------------------------------------------------------------------|
A|------------------------------------------------------------------|
E|------------------------------------------------------------------|

E|------------------------------------------------------------------|
B|------------------------------------------------------------------|
G|------------------------------------------------------------------|
D|----7------7------7------------------------7-------------8--------|
A|-5--5------5------5---------5--8---5-------5-------------6-------5|
E|------------------------------------------------------------------|

=============================================================================

    ____3___    ____3___
E|--|---|---|---|---|--|---------------------14-15-15-h17-17-b-|
B|-13-h15-h16-p15-p13--|-15-p13----13-15--16-------------------|
G|--------------------15--------15-----------------------------|
D|-------------------------------------------------------------|
A|-------------------------------------------------------------|
E|-------------------------------------------------------------|

                                                        Enf RF3
E|-------------------------------------------------------------|
B|-------------------------------------------------------------|
G|-------------------------------------------------------------|
D|------7-------7---------7------------6-p-5-----5--6-p-5------|
A|--5---5-------5---------5---------5---------8------------8--5|
E|-------------------------------------------------------------|

Then Solo 3 breaks in
  Rh. Fig 4.
E|--------------------------|-------------------------|
B|--------------------------|-------------------------|
G|--------------------------|-------------------------|
D|------------------------5-|-------------------------|
A|---------4-----0------5---|-------4-----0----3-2-0--|
E|-0-h1-/2---2-2---2--3-----|0-h1-2---2-2---2--------0|

E|-------------------------|-----------------------------|
B|-------------------------|-----------------------------|
G|-------------------------|-------------5-p4-2---6-p5-3-|
D|-----------------------5-|--------------------3--------|
A|--------4-----0------5---|-------4---------------------|
E|-0-h1-2---2-2---2--3-----|0-h1-2---2-2-----------------|

Then Solo 3 continues w/Rh. Fig. 4

E|--------------------10----10-------10-14-15-p14-p10|
B|-----------10-13-10----14----10-13-----------------|
G|-----11-12-----------------------------------------|
D|-/12-----------------------------------------------|
A|---------------------------------------------------|
E|---------------------------------------------------|

            ____3____
E|----------|---|---|--------------------------|
B|-13-p10-/22-\14-p10--------------------------|
G|--------------------11-12-11-h12-p12-\7b----5|
D|---------------------------------------------|
A|---------------------------------------------|
E|---------------------------------------------|

E|-------------------------------/15-p11-------|
B|---------7-10-9-10-7-h8-p7-------------13-p10|
G|-h7-7-h8-------------------8-7---------------|
D|---------------------------------------------|
A|---------------------------------------------|
E|---------------------------------------------|

                    ___3___        ____3____
E|-----------11-----|--|-11-10-h11-10-h11-p10---------------|
B|-----10-13-------10-13----------------------13-12~--/12-p9|
G|-11-b---------13------------------------------------------|
D|----------------------------------------------------------|
A|----------------------------------------------------------|
E|----------------------------------------------------------|

E|---------------------------------------------------|
B|-10-13-13-13-13-p12-12-12-12-/20-20-20-20-p19-19-19|
G|---------------------------------------------------|
D|---------------------------------------------------|
A|---------------------------------------------------|
E|---------------------------------------------------|

                  _________6_______             ____3____
E|----------------|--|---|--|--|--|-------------|---|---|-------------|
B|-19-\13-13-13-13-h15-p13--|-13-15-12-h13-p12-10-h12-p10----10-h12-10|
G|-------------------------14-----------------------------12----------|
D|--------------------------------------------------------------------|
A|--------------------------------------------------------------------|
E|--------------------------------------------------------------------|


   _________6_________ <--------------Simile-till the end of the bar---->
E|-|---|--|--|-|--|--|-8-10-12-p10-8-14-p10-p8----10-p8-----------8-12-p8
B|-8-h10-p8--|-8-10-12-------------------------12-------12-10-h12--------
G|----------11-----------------------------------------------------------
D|-----------------------------------------------------------------------
A|-----------------------------------------------------------------------
E|-----------------------------------------------------------------------

              _________5_____
  --------->  |     |  |  | |   __3__           Here Solo 3 ends into RF4.
E|----------|-|-10-p5-10-p5-|---|-|-|----------|-------------------|
B|-12-p10-p8|p7-------------7---7-|-7----------|-------------------|
G|----------|-----------------9---9-   9b-r9-7~|(7)\---------------|
D|----------|----------------------------------|-------------------|
A|----------|----------------------------------|-------------------|
E|----------|----------------------------------|-------------------|

Then ßomes the BREAK:

   4 times
E|-------------------------------|
B|-------------------------------|
G|-------------------------------|
D|-------------------------------|
A|-----------------4-/5-4-/5-2-/5|
E|-3-2-0-2-3-5-3-2-2-/3-2-/3-4-/3|
                      |    |    |
                      -----3-----

Then goes Solo 4 (Dave)

Dave plays this section of his solo very fast, so most of the notes
are 32's and most of the rest are 16's
W/RF4

E|-17--17-17--17-17-16-14-17-17-17-17-17-16-14-17-17-17-17-17-16-14-17-17
B|-----------------------------------------------------------------------
G|-----------------------------------------------------------------------
D|-----------------------------------------------------------------------
A|-----------------------------------------------------------------------
E|-----------------------------------------------------------------------

E|-17-17-17-16-14|
B|---------------|
G|---------------|
D|---------------|
A|---------------|
E|---------------|

E|-17--17-17-17-17------------------------------------------------------
B|-----------------14-17-17-17-17-16-14-14------------------------------
G|-----------------------------------------16-15-14-14----------------14
D|-----------------------------------------------------16-16-16-16-15---
A|----------------------------------------------------------------------
E|----------------------------------------------------------------------

E|----|
B|----|
G|----|
D|--15|
A|----|
E|----|


E|----------------------------------------------------------------------
B|-----14-14-16----14----16--------------17-14-14-17-14-14-19-p17-p14---
G|-14--14-14-16----14----16-14-14-16-16-b16---------------------------18
D|--------------16----16------------------------------------------------
A|----------------------------------------------------------------------
E|----------------------------------------------------------------------

E|----------|
B|-14-14-h17|
G|----------|
D|----------|
A|----------|
E|----------|

E|-14-h17-14-h17-14-17-17-19-p17-14----14-19-b-------17----19-b---~|
B|----------------------------------19------------------19---------|
G|-----------------------------------------------------------------|
D|-----------------------------------------------------------------|
A|-----------------------------------------------------------------|
E|-----------------------------------------------------------------|


[BREAK]

E|-------------------------|21b---r21-21-p20-21~-------|
B|-19b---r19---------------|---------------------------|
G|-----------18-21~------18|----------------x-------x\-|
D|-------------------------|------------------------x\-|
A|-------------------------|---------------------------|
E|-------------------------|---------------------------|

E|--------------13-h15------------------------------|
B|---------------------15--------------trill--------|
G|-18-p14-----------------17-14-13-13-17-(14)\13-14-|
D|--------18-16-------------------------------------|
A|--------------------------------------------------|
E|--------------------------------------------------|

                    _________6_______ __________6_______
E|------------------|---|--|--|---|-|-|----|--|--|--|--|--------------|
B|----14-17-p14----17-p14----------14-17-p14--|-17p14--|-17b---(17)\--|
G|-17-----------17--------17-14-17-----------17-------17--------------|
D|--------------------------------------------------------------------|
A|--------------------------------------------------------------------|
E|--------------------------------------------------------------------|


[BREAK]

  ___________6_________   _________6_________  __________6______  _______6
E|-21-p17-p14-h17-p14--|--|---|---|--|---|--|--|---|---|---|---|--|---|--|
B|--------------------14-21-p17-p14-17-p14-14-21-p17-p14-h17-p14--|---|--|
G|---------------------------------------------------------------21-p18-p0
D|------------------------------------------------------------------------
A|------------------------------------------------------------------------
E|------------------------------------------------------------------------

   6_______
E|--|--|--|-|
B|--|--|--|-|
G|-17-14-14-|
D|----------|
A|----------|
E|----------|

   __________6________  ________6________  _______6______
E|-|----|--|--|---|--|--|---|-|--|---|--|--|---|-|--|---|--------------------|
B|-17-p14---------------|---|-|--|---|--|--|---|-|--|---|--------------------|
G|--------14-17-p14----16-p14-|--|---|-14-16-p14-----------------------------|
D|------------------14--------|-17p-14-------------17-p14--------------------|
A|----------------------------0------------------0--------21-p17-p14-h17-p14-|
E|---------------------------------------------------------|---|---|---|---|-|
                                                           ----------6------

                                                             ___________6____
E|-----------------------------------------------------------|---|---|----|--|-|
B|-----------------------------------------------------------|---|---|----|--|-|
G|----------------------------------------------------------14-h21-p14-h17-h21-|
D|---------------------------------------14-h21-p14-h17-h21--------------------|
A|--------------------14-h21-p14-h17-h21--|---|---|---|---|--------------------|
E|-14-h21-p14-h17-p14--|---|---|---|---|--|---|---|---|---|--------------------|
   |   |    |   |   |  ----------6------  ----------6------
   --------5---------

    ___________6____
E|--|---|---|---|---|-14-h21-p14\------------------|
B|-14-h21-p14-h17-p14------------------------------|
G|-------------------------------------------------|
D|-------------------------------------------------|
A|--------------------------------2-19~------------|
E|-------------------------------------------------|


[BREAK]

E|-----------------------------------------------------|
B|------------------------------15-p14-----------19-p15|
G|-13-16-p14-13----14-p13--------------16-p14----------|
D|--------------16--------16-14---------------18-------|
A|-----------------------------------------------------|
E|-----------------------------------------------------|

                                      trill
E|--------------------------------14-(18)-----|
B|-18----15------------/14-14-h18-------------|
G|----18----17-h18-p14------------------------|
D|--------------------------------------------|
A|--------------------------------------------|
E|--------------------------------------------|

        ___3___             ____3___
E|------|--|--|-------------|---|---|-----------------------|
B|-17b-19-17-14-----19-p14-17-p14-19-p14---------17-p14-----|
G|--------------16b----------------------16b-p14--------16b-|
D|----------------------------------------------------------|
A|----------------------------------------------------------|
E|----------------------------------------------------------|

    _______5_____
E|-14--|---|--|-14----------------------14-----------|
B|----14-h17-14----14------------14-h17--------------|
G|--------------------16b-r16-14-----------17~-(17)\-|
D|---------------------------------------------------|
A|---------------------------------------------------|
E|---------------------------------------------------|


[BREAK]

First note (F#) is played at the very end of the break


      _____6______ Simile till the end of the 3rd bar
E|--2|5-4-2-h4-|-|--------2------5-8-p7-5-7-p5-----------------8|
B|---|---------2-2-5-4-p2---5-p4---------------8-8-p5---5-------|
G|---|------------------------------------------------7---7-p6--|
D|---|----------------------------------------------------------|
A|---|----------------------------------------------------------|
E|---|----------------------------------------------------------|

E|-h11-p10-p8-h10-p8-----------------12-15-p14-13-p11-h13-p11-----------
B|-------------------11-11-p10-p8-10--------------------------14-p13-p11
G|----------------------------------------------------------------------
D|----------------------------------------------------------------------
A|----------------------------------------------------------------------
E|----------------------------------------------------------------------

E|-----14|
B|-13----|
G|-------|
D|-------|
A|-------|
E|-------|

E|-h17-p16-p14-h16-p14---------------------17-20-19-p17-h19-p17----------
B|---------------------17-17-p16-p14-14-17----------------------20-20-p19
G|-----------------------------------------------------------------------
D|-----------------------------------------------------------------------
A|-----------------------------------------------------------------------
E|-----------------------------------------------------------------------

  (6-let feel ends)

E|-----------20|
B|-p17-17-20---|
G|-------------|
D|-------------|
A|-------------|
E|-------------|

E|-23-p22-p20-h22-p20------------------------13-14-16-18-20-22-24-24-24-24|
B|--------------------23-22-\---13-14-h16-16------------------------------|
G|---------------------------15-------------------------------------------|
D|------------------------------------------------------------------------|
A|------------------------------------------------------------------------|
E|------------------------------------------------------------------------|

E|-24b---24b---24b---24b---|24b-24b-24b-24b-24b-24b-24b-24b-|
B|-------------------------|--------------------------------|
G|-------------------------|--------------------------------|
D|-------------------------|--------------------------------|
A|-------------------------|--------------------------------|
E|-------------------------|--------------------------------|

=============================================================================

E|-24-b--r24--b24--HOLD BEND-----|(24)-----24b-HOLD BEND---24-b--\--|
B|-----------------WITH FAST-----|-------------WITH FAST---24-b--\--|
G|-----------------PICKING-++++++++++++++++>---PICKING--------------|
D|-------------------------------|----------------------------------|
A|-------------------------------|----------------------------------|
E|-------------------------------|----------------------------------|

E|-------------------------------|----------------------------------|
B|-------------------------------|----------------------------------|
G|-------------------------------|----------------------------------|
D|-------------4-----------------|----------4-----5-p4-2----6-p5--3-|
A|--------------------0---3-2-0--|-----------------------3----------|
E|--0-h1---2-----2--2---2-------0|--0-h1-2-----2--------------------|

=============================================================================

E|-----------------|-------------------------|----------------------|
B|-----------------|-------------------------|----------------------|
G|-----------------|-------------------------|----------------------|
D|-----------------|-------------------------|----------------------|
A|-5---------------|(5)----------------------|5--4-/5--4-/5---4-\---|
E|-3---------------|(3)-------3-2-0-2-3-5-3-2|3--2-/3--2-/3---2-\0--|

E|-----------------|-------------------------|----------------------|
B|-----------------|-------------------------|----------------------|
G|-----------------|-------------------------|----------------------|
D|-----------------|-------------------------|----------------------|
A|-5---------------|(5)----------------------|5--4-/5--4-/5---4-\---|
E|-3---------------|(3)----------------------|3--2-/3--2-/3---2-\0--|



************************************

| x    Dead note
| (n)  Ghost note
| h    Hammer-on
| p    Pull-off
| r    Release
| b    Bend
| /    Slide up
| \    Slide down
| ~    Vibrato

************************************
Suggest correction
comments
print report bad tab
15 comments total. Showing first comments.
0 reply
jimmy_hill1001 0 Nov 14, 2002 12:00 AM

e 1 1 1 5 5 6 7 8
b 3 3 3 3 6 6 6 8
g 2 3 4 5 then harmony 7 7 7 9
i know more plus solo but cant be arsed if you want it that bads email me jimmy_hill1001@hotmail.com

0 reply
jimmy_hill1001 0 Nov 14, 2002 12:00 AM

e 1 1 1 5 5 6 7 8
b 3 3 3 3 6 6 6 8
g 2 3 4 5 7 7 7 9
i know more plus solo but cant be arsed if you want it that bads email me jimmy_hill1001@hotmail.com

0 reply
Wimphyz 10 Feb 23, 2004 12:00 AM

Im not able to read this... its like.. i cant see where im at...

guest
You may want to rate the tab now too:
select rating
Wanna post a correction for this tab? Suggest correction