Oops, an error
Loading. Please wait.

Hangar 18 Bass

version 2
version 2

Whole song

  • Based on the bass master track: https://www.youtube.com/watch?v=BSkFfdyrWvQ.
29,013 views 84 this week
2 commentsread comments
1 2 3 4 5
x 13
add to favorites
launch autoscroll
font size
0
reset
guitar tuner
backing track
0:00
0:00
×
Best way to learn
"Hangar 18"
Autoscroll
slow
fast
+/-
esc
set tempo
stop
Author
Tuning
[Intro]

G|---------------------------------|
D|---------------------------------|
A|---------------------------------|
D|-7-0-0-0-0-0-0-0-0-0-0-0-0-0-0-0-|

G|---------------------------------|
D|---------------------------------|
A|---------------------------------|
D|-8-0-0-0-0-0-0-0-0-0-0-0-0-0-0-0-|

G|---------------------------------|
D|---------------------------------|
A|---------------------------------|
D|-9-0-0-0-0-0-0-0-0-0-0-0-0-0-0-0-|

G|----------------------------------|
D|----------------------------------|
A|----------------------------------|
D|-10-0-0-0-0-0-0-0-0-0-0-0-0-0-0-0-|

G|---------------------------------|
D|---------------------------------|
A|-5-------------------------------|
D|---0-0-0-0-0-0-0-0-0-0-0-0-0-0-0-|(x3)

G|----------------------------------|
D|----------------------------------|
A|-5-----------12/17171717171717----| (17, not 1 and 7)
D|---0-0-0-0-0------------------19\-|

G|-2--3--4--5-|
D|------------|
A|-0--1--2--3-|
D|------------|

G|--------------|--------------|--------------|--------------|
D|--------------|--------------|--------------|--------------|
A|-0--0-0h5-5---|-1--1-1/5-5---|-2--2-2/5-5---|-3--3-3/5-5---|
D|------------0-|------------0-|------------0-|------------0-|
 |
G|-----------------|
D|-3-2-0-----------|
A|-------3-1-0-----|
D|-------------5-3-|

G|-----------------------------------------------------------------|
D|-----------------------------------------------------------------|
A|-0-----5---------------------------------------------------------|
D|---0-0---0-0-0-0-0-0-0-0-0-0-0-0-0-0-0-0-0-0-0-0-0-0-0-0-0-0-0-0-|

G|---------------------------------|
D|---------------------------------|
A|-0-----5-------------------------|
D|---0-0---0-0-0-0-0-0-0-0-0-0-0-0-|

G|---------------------------------|
D|---------------------------------|
A|-2-----5-------------------------|
D|---0-0---0-0-0-0-0-0-0-0-0-0-0-0-|

[Verse 1]

G|-----------------------------------------------------------------|
D|-----------------------------------------------------------------|
A|-0-----5---------------------------------------------------------|
D|---0-0---0-0-0-0-0-0-0-0-0-0-0-0-0-0-0-0-0-0-0-0-0-0-0-0-0-0-0-0-|

G|---------------------------------|
D|---------------------------------|
A|-0-----5-------------------------|
D|---0-0---0-0-0-0-0-0-0-0-0-0-0-0-|

G|---------------------------------|
D|---------------------------------|
A|-2-----5-------------------------|
D|---0-0---0-0-0-0-0-0-0-0-0-0-0-0-|

G|-----------------|
D|-----------------|
A|-0-----5---------|
D|---0-0---0-0-0-0-|

G|-----------------|
D|-----------------|
A|-1-----5---------|
D|---0-0---0-0-0-0-|

G|-----------------|
D|-----------------|
A|-2-----5---------|
D|---0-0---0-0-0-0-|

G|-----------------|
D|-----------------|
A|-3-----5---------|
D|---0-0---0-0-0-0-|

[Chorus]

G|----------|----------|----------|--------------|
D|----------|----------|----------|--------------|
A|-5\-0-----|-5\-1-----|-5\-2-----|-5\3---3/-----|
D|------0-0-|------0-0-|------0-0-|-----0----12\-|

[Guitar Solo 1]

   P.M. ----- --- ------- ----- ----------- -----   ------- ----- --|
G|-----2-----2---2-|-----3-----3-----|-----4-----444-|-----3-----3---3-|
D|-----------------|-----------------|---------------|-----------------|
A|-0-0---0-0---0---|-1-1---1-1---1-1-|-2-2---2-2-----|-1-1---1-1---1---|
D|-----------------|-----------------|---------------|-----------------|

   P.M. ----- --- ------- ----- --- ------- ----- --- ------- ----- --|
G|-----2-----2---2-|-----3-----3---3-|-----4-----4---4-|-----1-----1---1-|
D|-----------------|-----------------|-----------------|-----------------|
A|-0-0---0-0---0---|-1-1---1-1---1---|-2-2---2-2---2---|-3-3---3-3---3---|
D|-----------------|-----------------|-----------------|-----------------|

   P.M. ----- --- ------- ----- --- ------- ----- --- ------- ----- --|
G|-----2-----2---2-|-----3-----3---3-|-----4-----4---4-|-----3-----3---3-|
D|-----------------|-----------------|-----------------|-----------------|
A|-0-0---0-0---0---|-1-1---1-1---1---|-2-2---2-2---2---|-1-1---1-1---1---|
D|-----------------|-----------------|-----------------|-----------------|

G|---------2-0----------------------------------------|
D|-----2-3-----3-2\-----------------3-2-0-------------|
A|-0-0--------------1-1-1-1-1-1-1-1-------3-1-0---2-3-|
D|----------------------------------------------5-----|

G|-----------------------------------------------------------------|
D|-----------------------------------------------------------------|
A|-0-----5---------------------------------------------------------|
D|---0-0---0-0-0-0-0-0-0-0-0-0-0-0-0-0-0-0-0-0-0-0-0-0-0-0-0-0-0-0-|

G|---------------------------------|
D|---------------------------------|
A|-0-----5-------------------------|
D|---0-0---0-0-0-0-0-0-0-0-0-0-0-0-|

G|---------------------------------|
D|---------------------------------|
A|-2-----5-------------------------|
D|---0-0---0-0-0-0-0-0-0-0-0-0-0-0-|

[Verse 2]

G|-----------------------------------------------------------------|
D|-----------------------------------------------------------------|
A|-0-----5---------------------------------------------------------|
D|---0-0---0-0-0-0-0-0-0-0-0-0-0-0-0-0-0-0-0-0-0-0-0-0-0-0-0-0-0-0-|

G|---------------------------------|
D|---------------------------------|
A|-0-----5-------------------------|
D|---0-0---0-0-0-0-0-0-0-0-0-0-0-0-|

G|---------------------------------|
D|---------------------------------|
A|-2-----5-------------------------|
D|---0-0---0-0-0-0-0-0-0-0-0-0-0-0-|

G|-----------------|
D|-----------------|
A|-0-----5---------|
D|---0-0---0-0-0-0-|

G|-----------------|
D|-----------------|
A|-1-----5---------|
D|---0-0---0-0-0-0-|

G|-----------------|
D|-----------------|
A|-2-----5---------|
D|---0-0---0-0-0-0-|

G|-----------------|
D|-----------------|
A|-3-----5---------|
D|---0-0---0-0-0-0-|

[Chorus]

G|----------|----------|----------|--------------|
D|----------|----------|----------|--------------|
A|-5\-0-----|-5\-1-----|-5\-2-----|-5\3---3/-----|
D|------0-0-|------0-0-|------0-0-|-----0----12\-|

[Guitar Solo 2]

   P.M. ----- --- ------- -----   ------- ----- --- ------- ----- --|
G|-----2-----2---2-|-----3-----333-|-----4-----4---4-|-----3-----3---3-|
D|-----------------|---------------|-----------------|-----------------|
A|-0-0---0-0---0---|-1-1---1-1-----|-2-2---2-2---2---|-1-1---1-1---1---|
D|-----------------|---------------|-----------------|-----------------|

   P.M. ----- --- ------- ----- --- ------- ----- --- ------- ----- --|
G|-----2-----2---2-|-----3-----3---3-|-----4-----4---4-|-----1-----1---1-|
D|-----------------|-----------------|-----------------|-----------------|
A|-0-0---0-0---0---|-1-1---1-1---1---|-2-2---2-2---2---|-3-3---3-3---3---|
D|-----------------|-----------------|-----------------|-----------------|

   P.M. ----- --- ------- ----- --- ------- ----- --- ------- ----|
G|-----2-----2---2-|-----3-----3---3-|-----4-----4---4-|-----3-----333-|
D|-----------------|-----------------|-----------------|---------------|
A|-0-0---0-0---0---|-1-1---1-1---1---|-2-2---2-2---2---|-1-1---1-1-----|
D|-----------------|-----------------|-----------------|---------------|

                    P.M.-----|
G|---------2-0----------3-----333-----------------|
D|-----2-3-----3-2\---------------3-2-0-----------|
A|-0-0--------------1-1---1-1-----------3-1-0---2-|
D|--------------------------------------------5---|
 |
 |   P.M--------------- ----|
G|-5---5-----555-|-----5-----555-|
D|---------------|---------------|
A|---3---3-3-----|-4-4---4-4-----|
D|---------------|---------------|

G|-7-------------------|
D|----------3----------|
A|--5-5-5-5---5-5-56-5-|
D|---------------------|(x3)

G|-7-----------------------|
D|----------3-----6-5-3----|
A|--5-5-5-5---5-5----------|
D|----------------------5\-|

G|-7-------------------|
D|----------3----------|
A|--5-5-5-5---5-5-56-5-|
D|---------------------|(x3)

G|-7-------------------------|
D|----------6-5------6-5-3---|
A|--5-5-5-5------------------|
D|--------------6-5\-------6-|

G|-------------------------|---------------------------|
D|-------4---------------5-|-------4-------------------|
A|---------------------5---|-------------------3-2-----|
D|-2-3-4---4-4-7-4-2-5-----|-2-3-4---4-4-7-4-4-----7-4-|

G|-------------------------|-----------------------------|
D|-------4---------------5-|-------4---------------------|
A|---------------------5---|-------------3-2-0---3-2-----|
D|-2-3-4---4-4-7-4-2-5-----|-2-3-4---4-4-------4-----3-4-|

[Guitar Solo 3]

G|-7-------------------|
D|----------3----------|
A|--5-5-5-5---5-5-56-5-|
D|---------------------|(x3)

G|-7----------------------|
D|----------3-----6-5-----|
A|--5-5-5-5---5-5---------|
D|--------------------7-8-|

G|-7-------------------|
D|----------3----------|
A|--5-5-5-5---5-5-56-5-|
D|---------------------|(x3)

G|-7-------------------------|
D|----------6-5------6-5-3---|
A|--5-5-5-5------------------|
D|--------------6-5\-------6-|

G|-------------------------|---------------------------|
D|-------4---------------5-|-------4-------------------|
A|---------------------5---|-------------------3-2-----|
D|-2-3-4---4-4-7-4-2-5-----|-2-3-4---4-4-7-4-4-----7-4-|

G|-------------------------|-----------------------------|
D|-------4---------------5-|-------4---------------------|
A|---------------------5---|-------------3-2-0---3-2-----|
D|-2-3-4---4-4-7-4-2-5-----|-2-3-4---4-4-------4-----3-4-|

G|-------------------------|
D|-------------------------|
A|-------------------------|
D|-5-4-2-4-5-7-5-5-4-5-5-5-|(x4)

[Guitar Solo 4]

G|-------------------------|---------------------------|
D|-------4---------------5-|-------4-------------------|
A|---------------------5---|-------------------3-2-----|
D|-2-3-4---4-4-7-4-2-5-----|-2-3-4---4-4-7-4-4-----7-4-|

G|-------------------------|-----------------------------|
D|-------4---------------5-|-------4---------------------|
A|---------------------5---|-------------3-2-0---3-2-----|
D|-2-3-4---4-4-7-4-2-5-----|-2-3-4---4-4-------4-----3-4-|

G|-------------------------|
D|-------------------------|
A|-------------------------|
D|-5-4-2-4-5-7-5-5-4-5-5-5-|(x4)

[Guitar Solo 5]

G|-------------------------|---------------------------|
D|-------4---------------5-|-------4-------------------|
A|---------------------5---|-------------------3-2-----|
D|-2-3-4---4-4-7-4-2-5-----|-2-3-4---4-4-7-4-4-----7-4-|

G|-------------------------|-----------------------------|
D|-------4---------------5-|-------4---------------------|
A|---------------------5---|-------------3-2-0---3-2-----|
D|-2-3-4---4-4-7-4-2-5-----|-2-3-4---4-4-------4-----3-4-|

G|-------------------------|
D|-------------------------|
A|-------------------------|
D|-5-4-2-4-5-7-5-5-4-5-5-5-|(x4)

[Guitar Solo 6]

G|-------------------------|---------------------------|
D|-------4---------------5-|-------4-------------------|
A|---------------------5---|-------------------3-2-----|
D|-2-3-4---4-4-7-4-2-5-----|-2-3-4---4-4-7-4-4-----7-4-|

G|-------------------------|-----------------------------|
D|-------4---------------5-|-------4---------------------|
A|---------------------5---|-------------3-2-0---3-2-----|
D|-2-3-4---4-4-7-4-2-5-----|-2-3-4---4-4-------4-----3-4-|

G|-------------------------|
D|-------------------------|
A|-------------------------|
D|-5-4-2-4-5-7-5-5-4-5-5-5-|(x4)

[Guitar Solo 7]

G|-------------------------|---------------------------|
D|-------4---------------5-|-------4-------------------|
A|---------------------5---|-------------------3-2-----|
D|-2-3-4---4-4-7-4-2-5-----|-2-3-4---4-4-7-4-4-----7-4-|

G|-------------------------|-----------------------------|
D|-------4---------------5-|-------4---------------------|
A|---------------------5---|-------------3-2-0---3-2-----|
D|-2-3-4---4-4-7-4-2-5-----|-2-3-4---4-4-------4-----3-4-|

G|-------------------------|
D|-------------------------|
A|-------------------------|
D|-5-4-2-4-5-7-5-5-4-5-5-5-|(x4)

[Guitar Solo 8]

G|-------------------------|---------------------------|
D|-------4---------------5-|-------4-------------------|
A|---------------------5---|-------------------3-2-----|
D|-2-3-4---4-4-7-4-2-5-----|-2-3-4---4-4-7-4-4-----7-4-|

G|-------------------------|-----------------------------|
D|-------4---------------5-|-------4---------------------|
A|---------------------5---|-------------3-2-0---3-2-----|
D|-2-3-4---4-4-7-4-2-5-----|-2-3-4---4-4-------4-----3-4-|

[Outro]

G|-------------------------|---------------------------|
D|-------4---------------5-|-------4-------------------|
A|---------------------5---|-------------------3-2-----|
D|-2-3-4---4-4-7-4-2-5-----|-2-3-4---4-4-7-4-4-----7-4-|

G|-------------------------|-------------------------------|
D|-------4---------------5-|-------4-----------------------|
A|---------------------5---|-------------3-2-0---3-2-------|
D|-2-3-4---4-4-7-4-2-5-----|-2-3-4---4-4-------4-----2-4-5-|

G|---------------------------|
D|---------------------------|
A|---------------------------|
D|-5-4-2-4-5-7-5-5-4-5-5-5-4-|

************************************

| /     Slide up
| \     Slide down
| h     Hammer-on
| P.M.  palm mute

************************************
Suggest correction
comments
print report bad tab
2 comments total.
-1 reply
Black Ox 160 Aug 14, 2011 03:59 PM

Interesting how you say it's 100% correct but I see a few mistakes, as I was using the same master track. During the first 2 solos the bass does jumps to the octave like the guitar. Also at the beginning where he plays the chords, the notes should be the octaves as well. You also missed the first fills within the solo parts. I'll try to post corrections soon.

0 reply
Zaqq 589 Sep 21, 2012 01:25 PM

Those "chords" ARE octaves.

guest
You may want to rate the tab now too:
select rating
Wanna post a correction for this tab? Suggest correction