Oops, an error
Loading. Please wait.

Head Crusher Bass Tab

version 1
version 1

Whole song

6,514 views 3 this week
no commentswrite comment
1 2 3 4 5
excellent!
x 4
add to favorites
launch autoscroll
font size
0
reset
guitar tuner
Tab Pro tools
  • play this tab
  • loop segment
  • change instrument
  • show fretboard
  • metronome
×
Best way to learn
"Head Crusher"
Autoscroll
slow
fast
+/-
esc
set tempo
stop
Contributor
Difficulty
intermediate
                                  HEAD CRUSHER
                                  by Megadeth
                                 (From ENDGAME)

Words by Dave Mustaine
Music by Dave Mustaine/Shawn Drover
Arranged by Megadeth

Tuning Standard (EADG)

Tabbed by Ironmaiden747

Duration Legend
W - whole, H - half, Q - quarter, E - 8th, S - 16th
+ - note tied to previous
. - note dotted, .. - note double dotted
Uncapitalized letters represent notes that are staccato (1/2 duration)
Duration letters always appear directly above the note/fret number it represents the 
for.
Duration letters with no fret number below them represent rests.

Tablature Legend
----------------
 h   - hammer-on
 p   - pull-off
 /   - slide up
 \   - slide down
1.2. - Repeat section labled 1. the first time 2. the second time
Intro
    Q=154
   4/4
    Gtr I
    S S S S S S S S S S S S S S S S   S S S S S S S S S S S S S S S S
||----------------------------------|---------------------------------|
||o---------------------------------|---------------------------------|
||o---------------------------------|---------------------------------|
||--7-0-0-6-0-0-5-0-3-0-0-0-0-0-0-0-|-7-0-0-6-0-0-5-0-3-0-0-0-0-0-0-0-|


  S S S S S S S S S S S S S S S S   S S S S S S S S S S S S Q
|---------------------------------|-----------------------------||
|---------------------------------|----------------------------o||
|---------------------------------|----------------------------o||
|-7-0-0-6-0-0-5-0-3-0-0-0-0-0-0-0-|-7-0-0-6-0-0-5-0-3-0-0-0-3---||


   Verse
    S S S S S S S S S S S S S S S S   S S S S S S S S E. S +E  E
||----------------------------------|----------------------------|
||o---------------------------------|----------------------------|
||o---------------------------------|-----------------0--2-(2)-3-|
||--3-2-2-2-2-2-2-2-5-2-2-2-2-2-2-2-|-7-2-2-2-2-2-2-2------------|


  S S S S S S S S S S S S S S S S   S S S S S S S S S S S S S E.
|---------------------------------|------------------------------|
|---------------------------------|------------------------------|
|---------------------------------|------------------------------|
|-3-2-2-2-2-2-2-2-5-2-2-2-2-2-2-2-|-7-2-2-2-2-2-2-2-3-2-0-0-5-3--|


  S S S S S S S S S S S S S S S S   S S S S S S S S E. E +S  E
|---------------------------------|----------------------------|
|---------------------------------|----------------------------|
|---------------------------------|-----------------0--2-(2)-3-|
|-3-2-2-2-2-2-2-2-5-2-2-2-2-2-2-2-|-7-2-2-2-2-2-2-2------------|


                                   17/16
  S S S S S S S S S S S S S S S S   E. S +E  E +E  Q.   +S
|---------------------------------|--------------------------|
|---------------------------------|--------------------------|
|---------------------------------|-4--3-(3)-2-(2)-----------|
|-3-2-2-2-2-2-2-2-5-2-2-2-2-2-2-0-|----------------3----(3)--|


 4/4
  S S S S S S S S S S S S S S S S   S S S S S S S S E. S +E  E
|---------------------------------|----------------------------|
|---------------------------------|----------------------------|
|---------------------------------|-----------------0--2-(2)-3-|
|-3-2-2-2-2-2-2-2-5-2-2-2-2-2-2-2-|-7-2-2-2-2-2-2-2------------|


  S S S S S S S S S S S S S S S S   S S S S S S S S S S S S S E.
|---------------------------------|------------------------------|
|---------------------------------|------------------------------|
|---------------------------------|------------------------------|
|-3-2-2-2-2-2-2-2-5-2-2-2-2-2-2-2-|-7-2-2-2-2-2-2-2-3-2-0-0-5-3--|


  S S S S S S S S S S S S S S S S   S S S S S S S S E. E +S  E
|---------------------------------|----------------------------|
|---------------------------------|----------------------------|
|---------------------------------|-----------------0--2-(2)-3-|
|-3-2-2-2-2-2-2-2-5-2-2-2-2-2-2-2-|-7-2-2-2-2-2-2-2------------|


                            Pre-Chorus
  S E S +E  E S E S +E  E    E S S +S  S E S S E S S E
|-------------------------||---------------------------|
|-------------------------||---------------------------|
|-------------2/3-2-(2)-0-||---------------------------|
|-2/3-2-(2)-0-------------||-4-4-4-(4)-4-4-4-4-4-4-4-4-|


  E S S +S  S E S S E S S E   E S S +S  S E E E S E.
|---------------------------|------------------------||
|---------------------------|------------------------||
|---------------------------|------------------------||
|-5-5-5-(5)-5-5-5-5-5-5-5-5-|-7-7-7-(7)-7-7-7-0-0-3--||


 Chorus
  Q=150
  S S S S S S E S S S S S S E   S S S S S S E S S S S S S E
|-----------------------------|-----------------------------|
|-----------------------------|-----------------------------|
|-----------------------------|-----------------------------|
|-0-2-2-2-2-0---0-2-2-2-2-0---|-0-2-2-2-2-0---0-2-2-2-2-0---|


  S S S S S S E S S S S S S E   S S S S S S E S S Q.
|-----------------------------|------------------------|
|-----------------------------|------------------------|
|-----------------------------|------------------------|
|-0-2-2-2-2-0---0-2-2-2-2-0---|-0-2-2-2-2-0---0-2-3----|


  S S S S S S E S S S S S S E   S S S S S S E S S S S S S E
|-----------------------------|-----------------------------|
|-----------------------------|-----------------------------|
|-----------------------------|-----------------------------|
|-0-2-2-2-2-0---0-2-2-2-2-0---|-0-2-2-2-2-0---0-2-2-2-2-0---|


  S S S S S S E S S S S S S E   S S S S S S E S S Q.
|-----------------------------|-------------------------||
|-----------------------------|------------------------o||
|-----------------------------|------------------------o||
|-0-2-2-2-2-0---0-2-2-2-2-0---|-0-2-2-2-2-0---0-2-3-----||


   Bridge
    Q=152
    E E E E +Q   E E   E Q.   E E E E  4x
||-------------------|-----------------||
||o------------------|----------------o||
||o-------1-(1)------|----------------o||
||--0-0-0--------0-0-|-0-3----0-0-0-1--||


    E E E E +Q   E E   E Q.   E E E E   4x
||-------------------|------------------||
||o------------------|-----------------o||
||o-------3-(3)------|-----------------o||
||--2-2-2--------2-2-|-2-5----2-2-2-3---||


   Interlude
    E E E E E E E E 12x     E E E E E E E E
||-------------------||-||------------------|
||o-----------------o||-||o-----------------|
||o-----------------o||-||o-----7-----------|
||--0-0-0-0-0-0-0-0--||-||--0-0---0-0-6-0-0-|


  E E E E E E E E  3x     E E E E E E E E
|------------------||-||--------------------||
|-----------------o||-||o------------------o||
|-----------------o||-||o------------------o||
|-0-0-0-3-0-5/6-5--||-||--0-0-0-0-0-0-0-0---||


   Verse
    Q=154
    E S S E S S S S S S E E   +E  S S E S S S S S S E E
||--------------------------|---------------------------|
||o-------------------------|---------------------------|
||o-7-------------------7-6-|-(6)-------------------6-5-|
||----0-0-0-0-0-0-0-0-0-----|-----0-0-0-0-0-0-0-0-0-----|


  +E  S S E S S S S S S E E   +E  S S E S S S S S S E E
|---------------------------|---------------------------|
|---------------------------|---------------------------|
|-(5)-------------------5-4-|-(4)-------------------4-3-|
|-----0-0-0-0-0-0-0-0-0-----|-----0-0-0-0-0-0-0-0-0-----|


  +E  S S E S S S S S S E E   +E  S S E S S E E Q
|---------------------------|----------------------|
|---------------------------|----------------------|
|-(3)-------------------3-2-|-(2)------------------|
|-----0-0-0-0-0-0-0-0-0-----|-----0-0-0-0-0-6-5-3--|


  1.                                    2.
  E E E E +Q   E E   E Q.   E E E E     E E E E E E E E   E E E E E E E E
|------------------|-----------------||-----------------|-----------------||
|------------------|----------------o||-----------------|-----------------||
|-------1-(1)------|----------------o||-----7-----------|-----------------||
|-0-0-0--------0-0-|-0-3----0-0-0-1--||-0-0---0-0-6-0-0-|-0-0-0-3-0-5/6-5-||


   Guitar Solo
    S S S S S S E S S S S E S S   S S E S S S S E E E E
||------------------------------|-----------------------|
||o-----------------------------|-----------------------|
||o-------------7---------8-----|-----5---------5\4-----|
||--0-0-0-0-0-0---0-0-0-0---0-0-|-0-0---0-0-0-0-----4\3-|


                                    1.2.3.
  S S S S S S S S S S S S S S S S   S S S S S S S S S S S S S S S S  4x
|---------------------------------|----------------------------------||
|---------------------------------|---------------------------------o||
|-------------5h7---------8p5-----|-----5h7-----------------8-8-8-8-o||
|-0-0-0-0-0-0-----0-0-0-0-----0-0-|-0-0-----0-0-0-0-6-6-6-6----------||


  4.
  S S S S S S S S Q  Q    Q  Q  H
|-----------------------|-------------|
|-----------------------|-------------|
|-----5h7---------1-----|-------------|
|-0-0-----0-0-0-0----1--|-0-----------|
comments
print report bad tab
I want to post or [tab]
guest
You may want to rate the tab now too:
select rating
Please do not post tabs as comments. Select "correction" instead!