Oops, an error
Loading. Please wait.

Head Crusher Tab

version 1
version 1

Whole song

94,591 views 45 this week
19 commentsread comments
1 2 3 4 5
x 22
add to favorites
launch autoscroll
font size
0
reset
how to read this tab
guitar tuner
×
Best way to learn
"Head Crusher"
Autoscroll
slow
fast
+/-
esc
set tempo
stop
Author
Difficulty
  follow
intermediate
Head Crusher                                 
Megadeth
Tabbed by BlisteringDDj
Solo will be added later.
Guitar 1: Dave Mustaine
Guitar 2: Chris Broderick

[Intro]
[Guitar 1]
      S   S  S  S   S  S  S   S  S   S  S  S   S  S  S   S  
e|--19p-12----18p-12----17p-12-15p-12----17p-12----18p-12-|
B|---------12--------12---------------12--------12--------|
G|--------------------------------------------------------|
D|--------------------------------------------------------|
A|--------------------------------------------------------|
E|--------------------------------------------------------|

[Guitar 2]
     S  S S S  S S S  S S  S S S S S S S  
e|--------------------------------------|
B|--------------------------------------|
G|--------------------------------------|
D|--------------------------------------|
A|--------------------------------------|
E|--7p-0-0-6p-0-0-5p-0-3p-0-0-0-0-0-0-0-|

[Guitar 1]
    S   S  S  S   S  S  S   S  S   S  S  S   S  S  S   S  
e|--19p-12----18p-12----17p-12-15p-12----17p-12----15p-12-|
B|---------12--------12---------------12--------12--------|
G|--------------------------------------------------------|
D|--------------------------------------------------------|
A|--------------------------------------------------------|
E|--------------------------------------------------------|

[Guitar 2]
    S  S S S  S S S  S S  S S S S S S S  
e|--------------------------------------|
B|--------------------------------------|
G|--------------------------------------|
D|--------------------------------------|
A|--------------------------------------|
E|--7p-0-0-6p-0-0-5p-0-3p-0-0-0-0-0-0-0-|

[Guitar 1]
     S   S  S  S   S  S  S   S  S   S  S  S   S  S  S   S  
e|--19p-12----18p-12----17p-12-15p-12----17p-12----18p-12-|
B|---------12--------12---------------12--------12--------|
G|--------------------------------------------------------|
D|--------------------------------------------------------|
A|--------------------------------------------------------|
E|--------------------------------------------------------|

[Guitar 2]
    S  S S S  S S S  S S  S S S S S S S  
e|--------------------------------------|
B|--------------------------------------|
G|--------------------------------------|
D|--------------------------------------|
A|--------------------------------------|
E|--7p-0-0-6p-0-0-5p-0-3p-0-0-0-0-0-0-0-|

[Guitar 1]
     S   S  S  S  S   S  S   S  S   S  S  S  E   E    
e|--12p-10----10-------------------------------------|
B|---------12----15p-12-12p-11-12p-11-10----12---L\--|
G|---------------------------------------12-12---L\--|
D|---------------------------------------------------|
A|---------------------------------------------------|
E|---------------------------------------------------|

[Guitar 2]
    S  S S S  S S S  S S  S S S Q   
e|-----------------------------------|
B|-----------------------------------|  
G|-----------------------------------|
D|-----------------------------------|
A|------------------------------5----|
E|--7p-0-0-6p-0-0-5p-0-3p-0-0-0-3----|

[Guitar 1]
     S   S  S  S   S  S  S   S  S   S  S  S   S  S  S   S  
e|--19p-12----18p-12----17p-12-15p-12----17p-12----18p-12-|
B|---------12--------12---------------12--------12--------|
G|--------------------------------------------------------|
D|--------------------------------------------------------|
A|--------------------------------------------------------|
E|--------------------------------------------------------|

[Guitar 2]
    S  S S S  S S S  S S  S S S S S S S  
e|--------------------------------------|
B|--------------------------------------|
G|--------------------------------------|
D|--------------------------------------|
A|--------------------------------------|
E|--7p-0-0-6p-0-0-5p-0-3p-0-0-0-0-0-0-0-|

[Guitar 1]
     S   S  S  S   S  S  S   S  S   S  S  S   S  S  S   S  
e|--19p-12----18p-12----17p-12-15p-12----17p-12----15p-12-|
B|---------12--------12---------------12--------12--------|
G|--------------------------------------------------------|
D|--------------------------------------------------------|
A|--------------------------------------------------------|
E|--------------------------------------------------------|

[Guitar 2]
    S  S S S  S S S  S S  S S S S S S S  
e|--------------------------------------|
B|--------------------------------------|
G|--------------------------------------|
D|--------------------------------------|
A|--------------------------------------|
E|--7p-0-0-6p-0-0-5p-0-3p-0-0-0-0-0-0-0-|

[Guitar 1]
     S   S  S  S   S  S  S   S  S   S  S  S  S  S   S  S  
e|--19p-12----18p-12----17p-12-15p-12-12----12-----------|
B|---------12--------12------------------15----15p-12-15-|
G|-------------------------------------------------------|
D|-------------------------------------------------------|
A|-------------------------------------------------------|
E|-------------------------------------------------------|

[Guitar 2]
    S  S S S  S S S  S S  S S S S S S S  
e|--------------------------------------|
B|--------------------------------------|
G|--------------------------------------|
D|--------------------------------------|
A|--------------------------------------|
E|--7p-0-0-6p-0-0-5p-0-3p-0-0-0-0-0-0-0-|

[Guitar 1]
     S   S  S  S  S   S   S  S  S   S  S  S  S  S  S  S  
e|------------------------------------------------------|
B|--15p-12-11--x-12p-11p-10----11p-10-------10----------|
G|--------------------------12--------12p-9----12-11p-9-|
D|------------------------------------------------------|
A|------------------------------------------------------|
E|------------------------------------------------------|

[Guitar 2]
    S  S S S  S S S  S S  S S S Q   
e|-----------------------------------|
B|-----------------------------------|  
G|-----------------------------------|
D|-----------------------------------|
A|------------------------------5----|
E|--7p-0-0-6p-0-0-5p-0-3p-0-0-0-3----|

[Verse]
[Guitar 1]
                                            |----3----|     
   H.             Q        S  S S S S S S S Q    Q    Q     
e|------------------------|----------------------------------|
B|------------------------|----------------------------------|
G|--11~-------------L\----|----------------------------------|
D|------------------------|-------------------2----4----5----|
A|------------------------|-------------------0----2----3----|
E|------------------------|--7p-2-2-2-2-2-2-2----------------|

[Guitar 2]
                                                        |----3----|     
  S  S S S S S S S S  S S S S S S S    S  S S S S S S S Q    Q    Q     
e|------------------------------------|----------------------------------|
B|------------------------------------|----------------------------------|
G|------------------------------------|----------------------------------|
D|------------------------------------|-------------------2----4----5----|
A|------------------------------------|-------------------0----2----3----|
E|--3p-2-2-2-2-2-2-2-5p-2-2-2-2-2-2-2-|--7p-2-2-2-2-2-2-2----------------|

[Guitar 1 & 2]
    S  S S S S S S S S  S S S S S S S    S  S S S S S S S S S S S S E.   
e|------------------------------------|---------------------------------|
B|------------------------------------|---------------------------------|
G|------------------------------------|---------------------------------|
D|------------------------------------|---------------------------2-----|
A|------------------------------------|---------------------------0-5---|
E|--3p-2-2-2-2-2-2-2-5p-2-2-2-2-2-2-2-|--7p-2-2-2-2-2-2-2-3-3-0-0---3---|

                                                        |----3----|     
  S  S S S S S S S S  S S S S S S S    S  S S S S S S S Q    Q    Q  
e|------------------------------------|----------------------------------|
B|------------------------------------|----------------------------------|
G|------------------------------------|----------------------------------|
D|------------------------------------|-------------------2----4----5----|
A|------------------------------------|-------------------0----2----3----|
E|--3p-2-2-2-2-2-2-2-5p-2-2-2-2-2-2-2-|--7p-2-2-2-2-2-2-2----------------|

                                       |----3----|               
  S  S S S S S S S S  S S S S S S S    Q    Q    Q    E  Q.
e|------------------------------------|---------------------------|
B|------------------------------------|---------------------------|
G|------------------------------------|---------------------------|
D|------------------------------------|--6----5----4----L---------|
A|------------------------------------|--4----3----2----L--5------|
E|--3p-2-2-2-2-2-2-2-5p-2-2-2-2-2-2-2-|--------------------3------|

                                                        |----3----|     
  S  S S S S S S S S  S S S S S S S    S  S S S S S S S Q    Q    Q  
e|------------------------------------|----------------------------------|
B|------------------------------------|----------------------------------|
G|------------------------------------|----------------------------------|
D|------------------------------------|-------------------2----4----5----|
A|------------------------------------|-------------------0----2----3----|
E|--3p-2-2-2-2-2-2-2-5p-2-2-2-2-2-2-2-|--7p-2-2-2-2-2-2-2----------------|

    S  S S S S S S S S  S S S S S S S    S  S S S S S S S S S S S S E.   
e|------------------------------------|---------------------------------|
B|------------------------------------|---------------------------------|
G|------------------------------------|---------------------------------|
D|------------------------------------|---------------------------2-----|
A|------------------------------------|---------------------------0-5---|
E|--3p-2-2-2-2-2-2-2-5p-2-2-2-2-2-2-2-|--7p-2-2-2-2-2-2-2-3-3-0-0---3---|

                                                        |----3----|     
  S  S S S S S S S S  S S S S S S S    S  S S S S S S S Q    Q    Q   
e|------------------------------------|----------------------------------|
B|------------------------------------|----------------------------------|
G|------------------------------------|----------------------------------|
D|------------------------------------|-------------------2----4----5----|
A|------------------------------------|-------------------0----2----3----|
E|--3p-2-2-2-2-2-2-2-5p-2-2-2-2-2-2-2-|--7p-2-2-2-2-2-2-2----------------|

  |----3----|    |----3----|                                             
  Q    Q    Q    Q    Q    Q       W                   W           
e|--------------------------------|-------------------|-------------------|
B|--------------------------------|-------------------|-------------------|
G|--------------------------------|-------------------|-------------------|
D|-----------------5----4----2----|-------------------|--2----------------|
A|--5----4----2----3----2----0----|--6----------------|--0----------------|
E|--3----2----0-------------------|--4----------------|-------------------|

[Chorus]
    H.           Q       S  S S S S  S E  S  S S S S  S E  
e|--------------------|------------------------------------|
B|--------------------|------------------------------------|
G|--------------------|------------------------------------|
D|--4-----------------|------------------------------------|
A|--2------------5----|------------------------------------|
E|---------------3----|--0h-2-2-2-2p-0----0h-2-2-2-2p-0----|

    S  S S S S  S E  S  S S S S  S E     S  S S S S  S E  S  S S S S  S E 
e|------------------------------------|------------------------------------|
B|------------------------------------|------------------------------------|
G|------------------------------------|------------------------------------|
D|------------------------------------|------------------------------------|
A|------------------------------------|------------------------------------|
E|--0h-2-2-2-2p-0----0h-2-2-2-2p-0----|--0h-2-2-2-2p-0----0h-2-2-2-2p-0----|

    S  S S S S  S E  S S Q.        S  S S S S  S E  S  S S S S  S E   
e|------------------------------|------------------------------------|
B|------------------------------|------------------------------------|
G|------------------------------|------------------------------------|
D|------------------------------|------------------------------------|
A|-----------------------5------|------------------------------------|
E|--0h-2-2-2-2p-0----0-2-3------|--0h-2-2-2-2p-0----0h-2-2-2-2p-0----|

    S  S S S S  S E  S  S S S S  S E     S  S S S S  S E  S  S S S S  S E   
e|------------------------------------|------------------------------------|
B|------------------------------------|------------------------------------|
G|------------------------------------|------------------------------------|
D|------------------------------------|------------------------------------|
A|------------------------------------|------------------------------------|
E|--0h-2-2-2-2p-0----0h-2-2-2-2p-0----|--0h-2-2-2-2p-0----0h-2-2-2-2p-0----|

    S  S S S S  S E  S S Q.      
e|------------------------------|
B|------------------------------|
G|------------------------------|
D|------------------------------|
A|-----------------------5------|
E|--0h-2-2-2-2p-0----0-2-3------|
(Repeat verse and chorus.)

[Guitar 1]
    E  E  E  Q.     E  E     E  Q.     E  E  E  E     E  E  E  Q.     E  E   
e|------------------------|------------------------|------------------------|
B|------------------------|------------------------|------------------------|
G|------------------------|------------------------|------------------------|
D|-----------3------------|------------------------|-----------3------------|
A|--2--2--2--1------2--2--|--2--5------2--2--2--3--|--2--2--2--1------2--2--|
E|--0--0--0---------0--0--|--0--3------0--0--0--1--|--0--0--0---------0--0--|

[Guitar 2]
    E  E  E  Q.     E  E     E  Q.     E  E  E  E     E  E  E  Q.     E  E   
e|-----0---------------0--|---------------0--------|-----0---------------0--|
B|--------0---------------|--0---------------0-----|--------0---------------|
G|------------------------|------------------------|------------------------|
D|-----------3------------|------------------------|-----------3------------|
A|--2--------1------2-----|-----5------2--------3--|--2--------1------2-----|
E|--0---------------0-----|-----3------0--------1--|--0---------------0-----|

[Guitar 1]
    E  Q.     E  E  E  E     E  E  E  Q.     E  E     E  Q.     E  E  E  E   
e|------------------------|------------------------|------------------------|
B|------------------------|------------------------|------------------------|
G|------------------------|------------------------|------------------------|
D|------------------------|-----------3------------|------------------------|
A|--2--5------2--2--2--3--|--2--2--2--1------2--2--|--2--5------2--2--2--3--|
E|--0--3------0--0--0--1--|--0--0--0---------0--0--|--0--3------0--0--0--1--|

[Guitar 2]
    E  Q.     E  E  E  E     E  E  E  Q.     E  E     E  Q.     E  E  E  E   
e|---------------0--------|-----0---------------0--|---------------0--------|
B|--0---------------0-----|--------0---------------|--0---------------0-----|
G|------------------------|------------------------|------------------------|
D|------------------------|-----------3------------|------------------------|
A|-----5------2--------3--|--2--------1------2-----|-----5------2--------3--|
E|-----3------0--------1--|--0---------------0-----|-----3------0--------1--|

[Guitar 1]
    E  E  E  Q.     E  E     E  Q.     E  E  E  E     E  E  E  Q.     E  E   
e|------------------------|------------------------|------------------------|
B|------------------------|------------------------|------------------------|
G|------------------------|------------------------|------------------------|
D|-----------3------------|------------------------|-----------5------------|
A|--2--2--2--1------2--2--|--2--5------2--2--2--3--|--4--4--4--3------4--4--|
E|--0--0--0---------0--0--|--0--3------0--0--0--1--|--2--2--2---------2--2--|

[Guitar 2]
    E  E  E  Q.     E  E     E  Q.     E  E  E  E     E  E  E  Q.     E  E   
e|-----0---------------0--|---------------0--------|-----2---------------2--|
B|--------0---------------|--0---------------0-----|--------2---------------|
G|------------------------|------------------------|------------------------|
D|-----------3------------|------------------------|-----------5------------|
A|--2--------1------2-----|-----5------2--------3--|--4--------3------4-----|
E|--0---------------0-----|-----3------0--------1--|--2---------------2-----|

[Guitar 1]
    E  Q.     E  E  E  E     E  E  E  Q.     E  E     E  Q.     E  E  E  E   
e|------------------------|------------------------|------------------------|
B|------------------------|------------------------|------------------------|
G|------------------------|------------------------|------------------------|
D|------------------------|-----------5------------|------------------------|
A|--4--4------4--4--4--5--|--4--4--4--3------4--4--|--4--4------4--4--4--5--|
E|--2--5------2--2--2--3--|--2--2--2---------2--2--|--2--5------2--2--2--3--|

[Guitar 2]
    E  Q.     E  E  E  E     E  E  E  Q.     E  E     E  Q.     E  E  E  E   
e|---------------2--------|-----2---------------2--|---------------2--------|
B|--2---------------2-----|--------2---------------|--2---------------2-----|
G|------------------------|------------------------|------------------------|
D|------------------------|-----------5------------|------------------------|
A|-----4------4--------5--|--4--------3------4-----|-----4------4--------5--|
E|-----5------2--------3--|--2---------------2-----|-----5------2--------3--|

[Guitar 1]
    E  E  E  Q.     E  E     E  Q.     E  E  E  E     E  E  E  Q.     E  E   
e|------------------------|------------------------|------------------------|
B|------------------------|------------------------|------------------------|
G|------------------------|------------------------|------------------------|
D|-----------5------------|------------------------|-----------5------------|
A|--4--4--4--3------4--4--|--4--4------4--4--4--5--|--4--4--4--3------4--4--|
E|--2--2--2---------2--2--|--2--5------2--2--2--3--|--2--2--2---------2--2--|

[Guitar 2]
    E  E  E  Q.     E  E     E  Q.     E  E  E  E     E  E  E  Q.     E  E   
e|-----2---------------2--|---------------2--------|-----2---------------2--|
B|--------2---------------|--2---------------2-----|--------2---------------|
G|------------------------|------------------------|------------------------|
D|-----------5------------|------------------------|-----------5------------|
A|--4--------3------4-----|-----4------4--------5--|--4--------3------4-----|
E|--2---------------2-----|-----5------2--------3--|--2---------------2-----|

[Guitar 1]
    E  Q.     E  E  E  E     E  E  E  E  E  E  E  E   
e|------------------------|--------------------------|
B|------------------------|--------------------------|
G|------------------------|--------------------------|
D|------------------------|--------------------------|
A|--4--4------4--4--4--5--|--2--2--2--2--2--2--2--2--|
E|--2--5------2--2--2--3--|--0--0--0--0--0--0--0--0--|

[Guitar 2]
    E  Q.     E  E  E  E     E  E  E  E  E  E  E  E   
e|---------------2--------|--------------------------|
B|--2---------------2-----|--------------------------|
G|------------------------|--------------------------|
D|------------------------|--------------------------|
A|-----4------4--------5--|--2--2--2--2--2--2--2--2--|
E|-----5------2--------3--|--0--0--0--0--0--0--0--0--|

[Guitar 1]
    E  E  E  E  E  E  E  E     E  E  E  E  E  E  E  E   
e|--------------------------|--------------------------|
B|--------------------------|--------------------------|
G|--------------------------|--------------------------|
D|--------------------------|--------------------------|
A|--2--2--2--2--2--2--2--2--|--2--2--2--2--2--2--2--2--|
E|--0--0--0--0--0--0--0--0--|--0--0--0--0--0--0--0--0--|

[Guitar 2]
    E  E  E  E  E  E  E  E     E  E  E  E  E  E  E  E   
e|--------------------------|--------------------------|
B|--------------------------|--------------------------|
G|--------------------------|--------------------------|
D|--------------------------|--------------------------|
A|--2--2--2--2--2--2--2--2--|--2--2--2--2--2--2--2--2--|
E|--0--0--0--0--0--0--0--0--|--0--0--0--0--0--0--0--0--|

[Guitar 1]
    E  E  E  E  E  E  E  E     E  E  E  E  E  E  E  E   
e|--------------------------|--------------------------|
B|--------------------------|--------------------------|
G|--------------------------|--------------------------|
D|--------------------------|--------9--------3--------|
A|--2--2--2--2--2--2--2--2--|--------7--------1--------|
E|--0--0--0--0--0--0--0--0--|--0--0-----0--0-----0--0--|

[Guitar 2]
    E  E  E  E  E  E  E  E     E  E  E  E  E  E  E  E   
e|--------------------------|--------------------------|
B|--------------------------|--------------------------|
G|--------------------------|--------------------------|
D|--------------------------|--------------------------|
A|--2--2--2--2--2--2--2--2--|--2--2--2--2--2--2--2--2--|
E|--0--0--0--0--0--0--0--0--|--0--0--0--0--0--0--0--0--|

[Guitar 1]
    E  E  E  E  E  E   E   E     E  E  E  E  E  E  E  E   
e|----------------------------|--------------------------|
B|----------------------------|--------------------------|
G|----------------------------|--------------------------|
D|----------------------------|--------------------------|
A|--2--------5-----7S--8S--7--|--2--2--2--2--2--2--2--2--|
E|--0--0--0--3--0--5S--6S--5--|--0--0--0--0--0--0--0--0--|

[Guitar 2]
    E  E  E  E  E  E  E  E     E  E  E  E  E  E  E  E   
e|--------------------------|--------------------------|
B|--------------------------|--------------------------|
G|--------------------------|--------------------------|
D|--------------------------|--------------------------|
A|--2--2--2--2--2--2--2--2--|--2--2--2--2--2--2--2--2--|
E|--0--0--0--0--0--0--0--0--|--0--0--0--0--0--0--0--0--|

[Guitar 1]
    E  E  E  E  E  E  E  E     E  E  E  E  E  E  E  E   
e|--------------------------|--------------------------|
B|--------------------------|--------------------------|
G|--------------------------|--------------------------|
D|--------------------------|--------9--------3--------|
A|--2--2--2--2--2--2--2--2--|--------7--------1--------|
E|--0--0--0--0--0--0--0--0--|--0--0-----0--0-----0--0--|

[Guitar 2]
    E  E  E  E  E  E  E  E     E  E  E  E  E  E  E  E   
e|--------------------------|--------------------------|
B|--------------------------|--------------------------|
G|--------------------------|--------------------------|
D|--------------------------|--------------------------|
A|--2--2--2--2--2--2--2--2--|--2--2--2--2--2--2--2--2--|
E|--0--0--0--0--0--0--0--0--|--0--0--0--0--0--0--0--0--|

[Guitar 1]
    E  E  E  E  E  E   E   E     E  E  E  E  E  E  E  E   
e|----------------------------|--------------------------|
B|----------------------------|--------------------------|
G|----------------------------|--------------------------|
D|----------------------------|--------------------------|
A|--2--------5-----7S--8S--7--|--2--2--2--2--2--2--2--2--|
E|--0--0--0--3--0--5S--6S--5--|--0--0--0--0--0--0--0--0--|

[Guitar 2]
    E  E  E  E  E  E  E  E     E  E  E  E  E  E  E  E   
e|--------------------------|--------------------------|
B|--------------------------|--------------------------|
G|--------------------------|--------------------------|
D|--------------------------|--------------------------|
A|--2--2--2--2--2--2--2--2--|--2--2--2--2--2--2--2--2--|
E|--0--0--0--0--0--0--0--0--|--0--0--0--0--0--0--0--0--|

[Guitar 1 & 2]
    E  E  E  E  E  E  E  E     E  E  E  E  E  E  E  E   
e|--------------------------|--------------------------|
B|--------------------------|--------------------------|
G|--------------------------|--------------------------|
D|--------------------------|--------9--------3--------|
A|--2--2--2--2--2--2--2--2--|--------7--------1--------|
E|--0--0--0--0--0--0--0--0--|--0--0-----0--0-----0--0--|

    E  E  E  E  E  E   E   E     E  E  E  E  E  E  E  E   
e|----------------------------|--------------------------|
B|----------------------------|--------------------------|
G|----------------------------|--------------------------|
D|----------------------------|--------9--------3--------|
A|--2--------5-----7S--8S--7--|--------7--------1--------|
E|--0--0--0--3--0--5S--6S--5--|--0--0-----0--0-----0--0--|

    E  E  E  E  E  E   E   E     E  E  E  E  E  E  E  E   
e|----------------------------|--------------------------|
B|----------------------------|--------------------------|
G|----------------------------|--------------------------|
D|----------------------------|--------9--------3--------|
A|--2--------5-----7S--8S--7--|--------7--------1--------|
E|--0--0--0--3--0--5S--6S--5--|--0--0-----0--0-----0--0--|

    E  E  E  E  E  E   E   E     E  E  E  E  E  E  E  E   
e|----------------------------|--------------------------|
B|----------------------------|--------------------------|
G|----------------------------|--------------------------|
D|----------------------------|--------------------------|
A|--2--------5-----7S--8S--7--|--2--2--2--2--2--2--2--2--|
E|--0--0--0--3--0--5S--6S--5--|--0--0--0--0--0--0--0--0--|

    E  E  E  E  E  E  E  E     E  S S E  S S S S S S E  E   
e|--------------------------|------------------------------|
B|--------------------------|------------------------------|
G|--------------------------|------------------------------|
D|--------------------------|--9---------------------9--8--|
A|--2--2--2--2--2--2--2--2--|--7---------------------7--6--|
E|--0--0--0--0--0--0--0--0--|-----0-0-0--0-0-0-0-0-0-------|

    E  S S E  S S S S S S E  E     E  S S E  S S S S S S E  E   
e|------------------------------|------------------------------|
B|------------------------------|------------------------------|
G|------------------------------|------------------------------|
D|--L---------------------8--7--|--L---------------------7--6--|
A|--L---------------------6--5--|--L---------------------5--4--|
E|-----0-0-0--0-0-0-0-0-0-------|-----0-0-0--0-0-0-0-0-0-------|

    E  S S E  S S S S S S E  E     E  S S E  S S S S S S E  E   
e|------------------------------|------------------------------|
B|------------------------------|------------------------------|
G|------------------------------|------------------------------|
D|--L---------------------6--5--|--L---------------------5--4--|
A|--L---------------------4--3--|--L---------------------3--2--|
E|-----0-0-0--0-0-0-0-0-0-------|-----0-0-0--0-0-0-0-0-0-------|

    E  S S E  S S E  E  Q       E  E   E  Q.     E  E    
e|---------------------------|-----3p--0------------3p--|
B|---------------------------|--------------------------|
G|---------------------------|--------------------------|
D|--L-------------3--2-------|------------3-------------|
A|--L-------------1--0--5----|--2---------1------2------|
E|-----0-0-0--0-0-------3----|--0----------------0------|

    E  Q.     E  E   E  E     E  E   E  Q.     E  E    
e|--0------------3p--0-----|-----3p--0------------3p--|
B|-------------------------|--------------------------|
G|-------------------------|--------------------------|
D|-------------------------|------------3-------------|
A|-----5------2---------3--|--2---------1------2------|
E|-----3------0---------1--|--0----------------0------|

    E  Q.     E  E   E  E     E  S S E  S S S S S S E  E   
e|--0------------3p--0-----|------------------------------|
B|-------------------------|------------------------------|
G|-------------------------|------------------------------|
D|-------------------------|--9---------------------9--8--|
A|-----5------2---------3--|--7---------------------7--6--|
E|-----3------0---------1--|-----0-0-0--0-0-0-0-0-0-------|

    E  S S E  S S S S S S E  E     E  S S E  S S S S S S E  E   
e|------------------------------|------------------------------|
B|------------------------------|------------------------------|
G|------------------------------|------------------------------|
D|--L---------------------8--7--|--L---------------------7--6--|
A|--L---------------------6--5--|--L---------------------5--4--|
E|-----0-0-0--0-0-0-0-0-0-------|-----0-0-0--0-0-0-0-0-0-------|

    E  S S E  S S S S S S E  E     E  S S E  S S S S S S E  E   
e|------------------------------|------------------------------|
B|------------------------------|------------------------------|
G|------------------------------|------------------------------|
D|--L---------------------6--5--|--L---------------------5--4--|
A|--L---------------------4--3--|--L---------------------3--2--|
E|-----0-0-0--0-0-0-0-0-0-------|-----0-0-0--0-0-0-0-0-0-------|

    E  S S E  S S E  E  Q       E  E  E  E  E  E  E  E   
e|---------------------------|--------------------------|
B|---------------------------|--------------------------|
G|---------------------------|--------------------------|
D|--L-------------3--2-------|--------9--------3--------|
A|--L-------------1--0--5----|--------7--------1--------|
E|-----0-0-0--0-0-------3----|--0--0-----0--0-----0--0--|

[Solo]
[Guitar 1]
    E  E  E  E  E  E  E  E     S S S S S S E  S S S S  E  S S  
e|--------------------------|---------------------------------|
B|--------------------------|---------------------------------|
G|--------------------------|---------------------------------|
D|--------------------------|--------------9----------10------|
A|--2--------5-----7--8--7--|--------------7-----------8------|
E|--0--0--0--3--0--5--6--5--|--0-0-0-0-0-0----0-0-0-0-----0-0-|

    S S E  S S S S E  E  E  E     S S S S S S S  S S S S S S  S S S  
e|-----------------------------|------------------------------------|
B|-----------------------------|------------------------------------|
G|-----------------------------|------------------------------------|
D|------7----------7--6--------|------------------------------------|
A|------5----------5--4--6--5--|--------------5h-7---------8p-5-----|
E|--0-0----0-0-0-0-------4--3--|--0-0-0-0-0-0------0-0-0-0------0-0-|

    S S S  S S S S S S S S S S S S S    S S S S S S E  S S S S  E  S S  
e|-----------------------------------|---------------------------------|
B|-----------------------------------|---------------------------------|
G|-----------------------------------|---------------------------------|
D|-----------------------------------|--------------9----------10------|
A|------5h-7-----------------8-8-8-8-|--------------7-----------8------|
E|--0-0------0-0-0-0-6-6-6-6---------|--0-0-0-0-0-0----0-0-0-0-----0-0-|

    S S E  S S S S E  E  E  E     S S S S S S S  S S S S S S  S S S  
e|-----------------------------|------------------------------------|
B|-----------------------------|------------------------------------|
G|-----------------------------|------------------------------------|
D|------7----------7--6--------|------------------------------------|
A|------5----------5--4--6--5--|--------------5h-7---------8p-5-----|
E|--0-0----0-0-0-0-------4--3--|--0-0-0-0-0-0------0-0-0-0------0-0-|

    S S S  S S S S S S S S S S S S S    S S S S S S E  S S S S  E  S S  
e|-----------------------------------|---------------------------------|
B|-----------------------------------|---------------------------------|
G|-----------------------------------|---------------------------------|
D|-----------------------------------|--------------9----------10------|
A|------5h-7-----------------8-8-8-8-|--------------7-----------8------|
E|--0-0------0-0-0-0-6-6-6-6---------|--0-0-0-0-0-0----0-0-0-0-----0-0-|

    S S E  S S S S E  E  E  E     S S S S S S S  S S S S S S  S S S  
e|-----------------------------|------------------------------------|
B|-----------------------------|------------------------------------|
G|-----------------------------|------------------------------------|
D|------7----------7--6--------|------------------------------------|
A|------5----------5--4--6--5--|--------------5h-7---------8p-5-----|
E|--0-0----0-0-0-0-------4--3--|--0-0-0-0-0-0------0-0-0-0------0-0-|

    S S S  S S S S S S S S S S S S S    S S S S S S E  S S S S  E  S S  
e|-----------------------------------|---------------------------------|
B|-----------------------------------|---------------------------------|
G|-----------------------------------|---------------------------------|
D|-----------------------------------|--------------9----------10------|
A|------5h-7-----------------8-8-8-8-|--------------7-----------8------|
E|--0-0------0-0-0-0-6-6-6-6---------|--0-0-0-0-0-0----0-0-0-0-----0-0-|

    S S E  S S S S E  E  E  E     S S S S S S S  S S S S S S  S S S  
e|-----------------------------|------------------------------------|
B|-----------------------------|------------------------------------|
G|-----------------------------|------------------------------------|
D|------7----------7--6--------|------------------------------------|
A|------5----------5--4--6--5--|--------------5h-7---------8p-5-----|
E|--0-0----0-0-0-0-------4--3--|--0-0-0-0-0-0------0-0-0-0------0-0-|

    S S S  S S S S S Q    Q       Q    H.             
e|-----------------------------|--------------------|
B|-----------------------------|--------------------|
G|-----------------------------|--------------------|
D|-------------------3---------|--------------------|
A|------5h-7---------1----3----|--2-----------------|
E|--0-0------0-0-0-0------1----|--0-----------------|

************************************

|W - whole
|H - half
|Q - quarter
|E - 8th
|S - 16th
|T - 32nd
|X - 64th
|. - note dotted
|-n-|  - n-tuplets
| p  Pull-off
| x  Dead note
| ~  Vibrato
| h  Hammer-on

************************************
Suggest correction
comments
print report bad tab
19 comments total. Showing first comments.
+1 reply
BlisteringDDj 493 Jul 09, 2009 11:41 AM

I might change the positions of the intro riff, as it might be a little hard than necessary. Still working on the solo...

+1 reply
Fintrollx 254 Jul 10, 2009 10:17 AM

Great tabzor

+1 reply
monne93 10 Jul 11, 2009 12:55 AM

Nice work!

guest
You may want to rate the tab now too:
select rating
Wanna post a correction for this tab? Suggest correction