Oops, an error
Loading. Please wait.

Holy Wars The Punishment Due Tab

version 2
version 2

Interactive

Video

161,699 views 81 this week
22 commentsread comments
1 2 3 4 5
accurate
x 49
add to favorites
launch autoscroll
font size
0
reset
how to read this tab
guitar tuner
Autoscroll
slow
fast
+/-
esc
set tempo
stop
Help us to improve Ultimate-Guitar.com Take our survey!
×
Author
Holy Wars
                             As recorded by Megadeth
                       (From the 1990 Album RUST IN PEACE)

Words and Music by Dave Mustaine
Transcribed by Kyle Gabriel

Gtr I (E A D G B E) - 'Untitled'
Gtr II (E A D G B E) - 'Untitled'
Gtr III (E A D G B E) - 'Untitled'
Gtr IV (E A D G B E) - 'Lead Guitar'

[Intro]

  Q=172
            N.C.                             E5
 4/4
  Gtr I
                        PM---------------|
  H..       S S   E S S E S S E  S S E S S   H    Q.   S S
|---------------|--------------------------|---------------|
|---------------|--------------------------|---------------|
|---------------|--------------------------|---------------|
|---------------|--------------------------|---------------|
|-----------5-6-|-7------------------------|-2----2----5-6-|
|---------------|---5-6-7-7-6-5\-5-5-3-3-3-|-0----0--------|


                     C5/G    F#5
                                       Gtrs I, II
         PM--------------|             PM|
   E S S E S S E S S E S S   H.      E S S
e|-------------------------|-----------------|
B|-------------------------|-----------------|
G|-------------------------|-----------------|
D|-------------------------|-----------------|
A|-7-----------------3-----|-4---------5-6---|
E|---5-6-7-7-6-5-5-5-3-3-3-|-2---------------|


  N.C.
  PM------------------------------------------------------------------------|
  E S S E S S E S S e S S   E S S E S S E S S e S S   E S S E S S E S S e S S
|-------------------------|-------------------------|--------------------------|
|-------------------------|-------------------------|--------------------------|
|-------------------------|-------------------------|--------------------------|
|---------------------2-3-|-4-----------------------|--------------------------|
|-7-----------------------|---3-4-5-5-4-3-3-3-2-5-6-|-7-------------------5-6--|
|---5-6-7-7-6-5-5-5-3-----|-------------------------|---5-6-7-7-6-5-5-5-3------|


    N.C.(Em7)                                            A5Bb5
             PM----------------------------------------|
    e S S e  S S S S S S S S S S   S S S S e S S S S S S E E
||-------------------------------|---------------------------|
||o------------------------------|---------------------------|
||-------------------------------|---------------------------|
||-------------------------------|---------------------------|
||o-7-------10p7-----------------|-5h7-------5h7---------7-8-|
||----0-0-0------0-0-0-0-0-0-0-0-|-----0-0-0-----0-0-0-0-5-6-|


  (Em7)                                                  F5 B5
             PM----------------------------------------|
  S S S S e  S S S S S S S S S S   S S S S e S S S S S S  E E
|--------------------------------|----------------------------|
|--------------------------------|----------------------------|
|--------------------------------|----------------------------|
|--------------------------------|-----------------------10---|
|-5h7-------10p7-----------------|-5h7-------5h7----------8-9-|
|-----0-0-0------0-0-0-0-0-0-0-0-|-----0-0-0-----0-0-0-0----7-|


  N.C.(Em7)                                              B5G5
             PM----------------------------------------|
  S S S S e  S S S S S S S S S S   S S S S e S S S S S S E E
|--------------------------------|---------------------------|
|--------------------------------|---------------------------|
|--------------------------------|---------------------------|
|--------------------------------|-----------------------4---|
|-5h7-------10p7-----------------|-5h7-------5h7---------2-5-|
|-----0-0-0------0-0-0-0-0-0-0-0-|-----0-0-0-----0-0-0-0---3-|


  1.
  (Em7)                        B5              Bb5       A5G5
             PM--------------|
  S S S S e  S S S S S S S S S S   +E  S S S S E +E  S S E E
|--------------------------------|---------------------------|
|--------------------------------|---------------------------|
|--------------------------------|---------------------------|
|--------------------------------|---------------------------|
|-5h7-------10p7---------------9-|-(9)---------8-(8)-----7-5-|
|-----0-0-0------0-0-0-0-0-0-0-7-|-(7)-0-0-0-0-6-(6)-0-0-5-3-|


                                  2.
  B5                      G5F#5   N.C.(Em)                     B5
                                             PM--------------|
                        |-3-|
  H    +Q.   E   E E Q  Q Q Q     S S S S e  S S S S S S S S S S
|--------------|---------------||---------------------------------|
|--------------|--------------o||---------------------------------|
|--------------|---------------||---------------------------------|
|-4----(4)-----|-4------4------||---------------------------------|
|-2----(2)-----|-2------2-5-4-o||-5h7-------10p7------------------|
|------------2-|----------3-2--||-----0-0-0------0-0-0-0-0-0-0-7--|


              Bb5       A5G5  N.C.(Em7)                    B
      PM----|       PM|               PM-------------------|
  +E  S S S S E +E  S S E E   S S S S e  S S S S S S S S S S
|---------------------------|--------------------------------|
|---------------------------|--------------------------------|
|---------------------------|--------------------------------|
|---------------------------|--------------------------------|
|---------------------------|-5h7-------10p7---------------6-|
|-(7)-0-0-0-0-6-(6)-0-0-5-3-|-----0-0-0------0-0-0-0-0-0-0---|


              Bb        A GsusN.C.(Em7)                    B
   PM-----------------|               PM-----------------|
  +E  S S S S E +E  S S E E   S S S S e  S S S S S S S S S S
|---------------------------|--------------------------------|
|---------------------------|--------------------------------|
|---------------------------|--------------------------------|
|---------------------------|--------------------------------|
|-(6)---------5-(5)-----4---|-5h7-------10p7---------------9-|
|-----0-0-0-0-------0-0---5-|-----0-0-0------0-0-0-0-0-0-0---|


  B5          Bb5         Gsus(Em)
          PM------------|
  +E  S S S S E +E  S S E E
|---------------------------|
|---------------------------|
|---------------------------|
|---------------------------|
|-(9)---------8-(8)-----7---|
|-----0-0-0-0-------0-0---8-|


                               B5              Bb5    A5G7
          PM-----------------|         PM--|
  S S S S e  S S S S S S S S S S   +E  S S S S E +Q   E E
|--------------------------------|-------------------------||
|--------------------------------|-------------------------||
|--------------------------------|-------------------------||
|------------------------------9-|-(9)---------8-(8)--7----||
|-5h7-------10p7-----------------|-----------7----------8--||
|-----0-0-0------0-0-0-0-0-0-0---|-----0-0-0---------------||


   Pre-Verse
    N.C.(Em7)                                                          B5
    |-----3-----|      |------3------|       |-----3-----|
    Q     Q     Q      Q     Q       Q       Q     Q     Q     Q       Q
||-----------------------------------------|-------------------------------|
||o----------------------------------------|-------------------------------|
||--------7--------------------------7-----|-------9-----------------------|
||--5-----------5------------5-------------|-7-------------------------9---|
||o--------------------7-------------------|-------------7-----6-----------|
||-----------------------------------------|-------------------------------|
|
|   Gtr II
|             PM-----------------------------------------------------|
|   S S S   S e    S S S S S   S S S   S S   S S S   S e   S S S S S S Q
||-----------------------------------------|-------------------------------|
||o----------------------------------------|-------------------------------|
||-----------------------------------------|-------------------------------|
||-----------------------------------------|-------------------------------|
||o-5h7-----------10p7---------------------|-5h7-----------5h7---------9---|
||------0---0-0--------0-0-0---0-0-0---0-0-|-----0---0-0-------0-0-0-0-7---|


   N.C.(Em7)                                               B5
   ~~~~~~~~~~~~~~~~~~~~~~~~~~~~~~~~~~~~~
   W                                +H.                    Q
e|--------------------------------|---------------------------|
B|--------------------------------|---------------------------|
G|--------------------------------|---------------------------|
D|--------------------------------|---------------------------|
A|-7------------------------------|-(7)--------------------9--|
E|--------------------------------|---------------------------|
|
|         PM--------------------------------------------|
| S S S S e  S S S S S S S S S S    S S S S e S S S S S S Q
|--------------------------------|---------------------------|
|--------------------------------|---------------------------|
|--------------------------------|---------------------------|
|--------------------------------|---------------------------|
|-5h7-------10p7-----------------|--5h7-------5h7---------9--|
|-----0-0-0------0-0-0-0-0-0-0-0-|------0-0-0-----0-0-0-0-7--|


  N.C.(Em7)                                                              B5
  |-----3-----|      |------3------|       |-----3-----|     |-----3-----|
  Q     Q     Q      Q     Q       Q       Q     Q     Q     Q     Q     Q
|----------------------------------------|---------------------------------|
|----------------------------------------|---------------------------------|
|-------7--------------------------7-----|-------------8-----------------7-|
|-5-----------5------------5-------------|-------4-----------------3-------|
|--------------------7-------------------|-6-----------------5-------------|
|----------------------------------------|---------------------------------|
|
|           PM-------------------------------------------------------|
| S S S   S e    S S S S S   S S S   S S   S S S   S e   S S S S S   S Q
|----------------------------------------|---------------------------------|
|----------------------------------------|---------------------------------|
|----------------------------------------|---------------------------------|
|----------------------------------------|---------------------------------|
|-5h7-----------10p7---------------------|-5h7-----------5h7-----------9---|
|-----0---0-0--------0-0-0---0-0-0---0-0-|-----0---0-0-------0-0-0---0-7---|


   1.
   N.C.(Em7)                                               B5
   ~~~~~~~~~~~~~~~~~~~~~~~~~~~~~~~~~~~~~
   W                                +H.                    Q
e|--------------------------------|----------------------------||
B|--------------------------------|---------------------------o||
G|--------------------------------|----------------------------||
D|--------------------------------|----------------------------||
A|-7------------------------------|-(7)--------------------9--o||
E|--------------------------------|----------------------------||
|
|         PM--------------------------------------------|
| S S S S e  S S S S S S S S S S    S S S S e S S S S S S Q
|--------------------------------|----------------------------||
|--------------------------------|---------------------------o||
|--------------------------------|----------------------------||
|--------------------------------|----------------------------||
|-5h7-------10p7-----------------|--5h7-------5h7---------9--o||
|-----0-0-0------0-0-0-0-0-0-0-0-|------0-0-0-----0-0-0-0-7---||


   2.
   N.C.(Em7)
             ~~~~~~~~~~~~~~~~~~~~~~~~~~~
   S E.     +Q       +H
e|-------------------------------------|
B|-------------------------------------|
G|-------------------------------------|
D|-------------------------------------|
A|-5-7------(7)------(7)---------------|
E|-------------------------------------|
|
 |           PM-------------------------
 | S S  S S  e   S S  S  S S S S S S S
e|-------------------------------------|
B|-------------------------------------|
G|-------------------------------------|
D|-------------------------------------|
A|-5h7----------10p7-------------------|
E|------0-0--0--------0--0-0-0-0-0-0-0-|


                             G5A5  F#G5  F#5     G5        F#5     G5
  ~~~~~~~~~~~~~~~                      PM  PM|       PM|     PM|
   +Q.        E   +Q         E E   E E E E E E E E   E E E E E E E E
e|-------------------------------|-----------------|-----------------|
B|-------------------------------|-----------------|-----------------|
G|-------------------------------|-----------------|-----------------|
D|-------------------------------|-----------------|-----------------|
A|-(7)--------7---(7)\-------5-7-|-4-5---4-----4-5-|-----5-4-----4-5-|
E|---------------------------3-5-|-2-3-0-2-0-0-2-3-|-0-0-3-2-0-0-2-3-|
|
|-------------------------|           PM  PM|       PM|     PM|
|  S S S S e S S  S   S S S E E   E E E E E E E E   E E E E E E E E
|-------------------------------|-----------------|-----------------|
|-------------------------------|-----------------|-----------------|
|-------------------------------|-----------------|-----------------|
|-------------------------------|-----------------|-----------------|
|--5h7-------5h7------------5-7-|-4-5---4-----4-5-|-----5-4-----4-5-|
|------0-0-0------0---0-0-0-3-5-|-2-3-0-2-0-0-2-3-|-0-0-3-2-0-0-2-3-|


   N.C.(Em7)
   Gtrs I, II
           PM----------------------
   S S S S e  S S S S S S S S S S
e|--------------------------------|
B|--------------------------------|
G|--------------------------------|
D|--------------------------------|
A|-5h7-------10p7-----------------|
E|-----0-0-0------0-0-0-0-0-0-0-0-|


                        G5A5/EF#G   F#      G
 ---------------------|           PM  PM|
  S S S S e S S S S S S E E   E E E E E E E E
|---------------------------|------------------|
|---------------------------|------------------|
|---------------------------|------------------|
|---------------------------|------------------|
|-5h7-------5h7---------5-0-|-1-2---1-----1-2--|
|-----0-0-0-----0-0-0-0-3-0-|-2-3-0-2-0-0-2-3--|


        F#      G   N.C.(Em7)
  PM|     PM|               PM-------------------|
  E E E E E E E E   S S S S e  S S S S S S S S S S
|-----------------|--------------------------------|
|-----------------|--------------------------------|
|-----------------|--------------------------------|
|-----------------|--------------------------------|
|-----2-1-----1-2-|-5h7-------10p7-----------------|
|-0-0-3-2-0-0-2-3-|-----0-0-0------0-0-0-0-0-0-0-0-|


                        G5A5  F#G5  F#5     G5        F#5     G5
  PM------------------|           PM  PM|       PM|     PM|
  S S S S e S S S S S S E E   E E E E E E E E   E E E E E E E E
|---------------------------|-----------------|-----------------|
|---------------------------|-----------------|-----------------|
|---------------------------|-----------------|-----------------|
|---------------------------|-----------------|-----------------|
|-5h7-------5h7---------5-7-|-4-5---4-----4-5-|-----5-4-----4-5-|
|-----0-0-0-----0-0-0-0-3-5-|-2-3-0-2-0-0-2-3-|-0-0-3-2-0-0-2-3-|


  N.C.(Em7)                                              G5A5/E
          PM-------------------------------------------|
  S S S S e  S S S S S S S S S S   S S S S e S S S S S S E E
|--------------------------------|---------------------------|
|--------------------------------|---------------------------|
|--------------------------------|---------------------------|
|--------------------------------|---------------------------|
|-5h7-------10p7-----------------|-5h7-------5h7---------5-0-|
|-----0-0-0------0-0-0-0-0-0-0-0-|-----0-0-0-----0-0-0-0-3-0-|


  F#G   F#    F#G5        F#5
      PM  PM|       PM|     PM--------|
  E E E E E E E E   E E E E E E S S S S
|-----------------|---------------------||
|-----------------|---------------------||
|-----------------|---------------------||
|-----------------|---------------------||
|-1-2---1-----4-5-|-----5-4-----------5-||
|-2-3-0-2-0-0-2-3-|-0-0-3-2-0-0-5-7-8---||


    1st, 2nd Verses
     N.C.(E5)Em  F#/E      N.C.(EA#m   BmA#m
     Gtr I
       PM--|                 PM|
     e S S E E E E E S S   e E E E +E  E E S S
e||----------------------|---------------------|
B||o---------------------|---------------------|
G||----------4---3-------|---------------------|
D||----------5---4-------|---------------------|
A||o-7---------------5-6-|-7---------------5-6-|
E||----0-0-0-------------|---0-0-6-(6)-7-6-----|
|
 |   Gtr II
 |     PM--|                 PM|
 |   e S S E E E E E S S   e E E E +E  E E S S
e||----------------------|---------------------|
B||o---------------------|---------------------|
G||----------4---3-------|---------------------|
D||----------5---4-------|---------------------|
A||o-7---------------5-6-|-7-----4-(4)-5-4-5-6-|
E||----0-0-0-------------|---0-0---------------|


   N.C.(E5)Em/GD#m/F#    N.C.(EF#        G
     PM--|                 PM|       PM
   e S S E E E E E S S   e E E E +E  E E E
e|---------------------|-------------------|
B|---------------------|-------------------|
G|---------------------|-------------------|
D|---------------------|-------------------|
A|-7-------7---6---5-6-|-7-----1-(1)---1-2-|
E|---0-0-0-3---2-------|---0-0-2-(2)-0-2-3-|
|
 |   PM--|                 PM|       PM
 | e S S E E E E E S S   e E E E +E  E E E
e|---------------------|-------------------|
B|---------------------|-------------------|
G|---------------------|-------------------|
D|---------------------|-------------------|
A|-7-------7---6---5-6-|-7-----1-(1)---1-2-|
E|---0-0-0-3---2-------|---0-0-2-(2)-0-2-3-|


   A             G A   Bb
   Gtrs I, II
     PM|       PM        PM|
   E E E E +E  E E E   E E E E +E  E E E
e|-------------------|-------------------|
B|-------------------|-------------------|
G|-------------------|-------------------|
D|-------------------|-------------------|
A|-4-----4-(4)---2-4-|-5-----5-(5)-------|
E|-5-0-0-5-(5)-0-3-5-|-6-0-0-6-(6)-5-3-5-|


  N.C.(Em)  Bb    Am      N.C.(Em)  Bb5   A5
      PM--|                   PM--|
  S S S S E E +E  E E E   S S S S e E +E  E E S S
|-----------------------|--------------------------|
|-----------------------|--------------------------|
|-----------------------|--------------------------|
|-----------------------|--------------------------|
|-----------5-(5)-3-----|-----------8-(8)-7---5-6--|
|-3p0-0-0-0-6-(6)-5-3-5-|-3p0-0-0-0-6-(6)-5-3------|


   N.C.(E5)Em  F#/E      N.C.(EA#m   BmA#m
   Gtr I
     PM--|                 PM|
   e S S E E E E E S S   e E E E +E  E E S S
e|---------------------|---------------------|
B|---------------------|---------------------|
G|---------4---3-------|---------------------|
D|---------5---4-------|---------------------|
A|-7---------------5-6-|-7---------------5-6-|
E|---0-0-0-------------|---0-0-6-(6)-7-6-----|
|
 | Gtr II
 |   PM--|                 PM|
 | e S S E E E E E S S   e E E E +E  E E S S
e|---------------------|---------------------|
B|---------------------|---------------------|
G|---------4---3-------|---------------------|
D|---------5---4-------|---------------------|
A|-7---------------5-6-|-7-----4-(4)-5-4-5-6-|
E|---0-0-0-------------|---0-0---------------|


   N.C.(E5)Em/GD#m/F#    N.C.(EF#        G
     PM--|                 PM|       PM
   e S S E E E E E S S   e E E E +E  E E E
e|---------------------|--------------------|
B|---------------------|--------------------|
G|---------------------|--------------------|
D|---------------------|--------------------|
A|-7-------7---6---5-6-|-7-----1-(1)---1-2--|
E|---0-0-0-3---2-------|---0-0-2-(2)-0-2-3--|
|
 |   PM--|                 PM|       PM
 | e S S E E E E E S S   e E E E +E  E E E
e|---------------------|--------------------|
B|---------------------|--------------------|
G|---------------------|--------------------|
D|---------------------|--------------------|
A|-7-------7---6---5-6-|-7-----1-(1)---1-2--|
E|---0-0-0-3---2-------|---0-0-2-(2)-0-2-3--|


   A             G A   Bb
   Gtrs I, II
     PM|       PM        PM|
   E E E E +E  E E E   E E E E +E  E E E
e|-------------------|-------------------|
B|-------------------|-------------------|
G|-------------------|-------------------|
D|-------------------|-------------------|
A|-4-----4-(4)---2-4-|-5-----5-(5)-------|
E|-5-0-0-5-(5)-0-3-5-|-6-0-0-6-(6)-5-3-5-|


  N.C.(Em)  Bb    Am      N.C.(Em)  Bb5   A5
      PM--|                   PM--|
  S S S S E E +E  E E E   S S S S e E +E  E E S S
|-----------------------|---------------------------||
|-----------------------|--------------------------o||
|-----------------------|---------------------------||
|-----------------------|---------------------------||
|-----------5-(5)-3-----|-----------8-(8)-7---5-6--o||
|-3p0-0-0-0-6-(6)-5-3-5-|-3p0-0-0-0-6-(6)-5-3-------||


                             Q=128     H.=H
  N.C.                       E5
                             Gtrs I, II
  W                          W
                             |
                             /

                             Gtr III
    PM------------------|
  E S S E S S E S S E S S    Q  E S  S  Q.    E
|-------------------------||--------------------|
|-------------------------||-----------12----10-|
|-------------------------||------9h10----------|
|-------------------------||--------------------|
|-7---------------------0-||--------------------|
|---5-6-7-7-6-5-5-5-3-3---||--------------------|


  +W
   |
   /

         |--3--|                 |-----6------|
   E  E  S  S  S  E  S  S  S  S  S  S  S S  S S
|-------11-12-11----11-12----12-10----10-8----8-|
|-12-13----------13-------13-------12------10---|
|-----------------------------------------------|
|-----------------------------------------------|
|-----------------------------------------------|
|-----------------------------------------------|


  +W
   |
   /

   |----6----| |----6----|          |-3-| |-3-|
   S S S S S S S S S S S S S a  S S T T T E E E
|--7---7-5---5-4---4-5---5-7-7s10-7-5h6p5-------|
|----9-----6-----5-----6------------------6-3-4-|
|-----------------------------------------------|
|-----------------------------------------------|
|-----------------------------------------------|
|-----------------------------------------------|


                                              2/4
  +W                                           +H
   |                                            |
   /                                            /

        |-3-|
    S S T T T S T T T T T T T T S S S S E  E    +H
e|----------------------------------------^0-||-(0)----||
B|--5-2-4h5p4-0-3-2-1-0---1-0-------------^0-||-(0)----||
G|----------------------2-----2-1-0-------^1-||-(1)----||
D|----------------------------------4-3-2-^2-||-(2)----||
A|-------------------------------------------||--------||
E|-------------------------------------------||--------||


[Bridge]

    Q=128
    C5B5/F#     C5B5/F#         C5D5/A
   4/4
    Gtrs I, II
        PM  PM|           PM----|
    E E E E E E E E   E E E E E E Q   4x
||------------------|-----------------||
||o-----------------|----------------o||
||------------------|-----------------||
||------------------|-----------------||
||o-3-2---2-----3-2-|---2-----2-3-5--o||
||--3-2-0-2-0-2-3-2-|-2-2-0-0-2-3-5---||


 Intro to "Punishment Due"
  E5              C5                      N.C.(E5) B5  G F#  E5  F#F E5  F E5
                                                                           Gtr II
  W                    W                  W                  H       Q   E E
                                                                           |
                                                                           /

   Gtr I
   PM|                                                  PM|       PM|     PM
   E E a E E E E E E   +H     +Q   +Q      Q  a E E E E E e   E E E E E E E E
e|-------------------|-------------------|------------------|-0-------0---------|
B|-------------------|-------------------|------------------|---0-------0-------|
G|-------------------|-------------------|------------------|-------------------|
D|-----0h2---4-----5-|-(5)----(5)--(5)\--|----0h2---4-------|-------------------|
A|-2-------2-----3-3-|-(3)----(3)--(3)\--|--------2-2---2-1-|-----1-0-----0-----|
E|-0-0---------0-----|-------------------|-0----------0-3-2-|-----2-1-----1-0---|


  +W                   +W
   |                    |
   /                    /

   +Q   a E E E E E E    H    +Q   +Q
e|--------------------|------------------|
B|--------------------|------------------|
G|--------------------|------------------|
D|------0h2---4-----5-|--5----(5)--(5)\--|
A|----------2-----3-3-|--3----(3)--(3)\--|
E|-(0)----------0-----|------------------|


                 G5F#5     F#F5    F5E5
  +H.            E E   Q   E E Q   E E
   |             | |       | |     | |
   /             / /       / /     / /

                  PM|       PM|     PM
    Q   a E E E E E e   E E E E E E E E
e|--------------------|-0-------0---------||
B|--------------------|---0-------0-------||
G|--------------------|-------------------||
D|------0h2---4-------|-------------------||
A|----------2-2---2-1-|-----1-0-----0-----||
E|--0-----------0-3-2-|-----2-1-----1-0---||


[Verse]

     E5              C5
     Gtrs I, II
     PM|         PM            PM-------------
     E E a E E E E E  E    +E  E E E E E E E
e||----------------------|-------------------|
B||o---------------------|-------------------|
G||----------------------|-------------------|
D||------0h2---4------5--|-(5)-5-5-5-5-5-5-5-|
A||o-2-2-----2-----3-(3)-|-(3)-3-3-3-3-3-3-3-|
E||--0-0---------0-------|-------------------|


  E5            G F#  E5  F#F E5  F E5
 ---|         PM--|       PM|     PM
  E E a E E E E E E   E E E E E E E E   4x
|-------------------|-0-------0---------||
|-------------------|---0-------0------o||
|-------------------|-------------------||
|-----0-2---4-------|-------------------||
|-2-2-----2-----2-1-|-----1-0-----0-2--o||
|-0-0---------0-3-2-|-----2-1-----1-0---||


  First Guitar Solo
   G7                           Bbsus2                                        F5    F#5
   Gtr IV
   S S S S S S S S  S S S S S S S S    S S S S   S  S  S  S  S  S  S     S  a  S  S  E
e|---------------7-10p7-----------6-|-10p6---------------10-13p10-------10-------13-13-|
B|-------------8--------8-------6---|------6----------11----------13b15----13s15-------|
G|-----------7------------7---7-----|--------7-----10----------------------------------|
D|-------5h9----------------9-------|----------/12-------------------------------------|
A|-----5----------------------------|--------------------------------------------------|
E|-3h7------------------------------|--------------------------------------------------|
|
| Gtrs I, II
| PM--------------|
| E   E   E   E    E   E   E   E      E   E     E     E     E     E           E     E
|----------------------------------|--------------------------------------------------|
|-------------0--------------------|------------1-------------------------------------|
|---------0--------0---------------|------3-----------3-------------------------------|
|-----0----------------3---0-------|--3-----------------------------------------------|
|-2----------------------------1---|------------------------1-----------------3-----4-|
|----------------------------------|------------------------------0-----------1-----2-|


   G7                                   Bbsus2
       ~~~~~
    E  Q.        S  S  S     S  S     S  S  S
e|-18-18b20-----15-------------------------20b22--|
B|-----------------15-17b18r17-17b18r17p15--------|
G|------------------------------------------------|
D|------------------------------------------------|
A|------------------------------------------------|
E|------------------------------------------------|
|
|               PM------------|
|  E  E    E E  E     E        E        E
|------------------------------------------------|
|----------3-0-----------------------------------|
|---------------0--------------------------------|
|---------------------3--------0-----------------|
|-----2---------------------------------1--------|
|--3---------------------------------------------|


   Bbsus2                         F5F#5
                         ~~~~~~~~
    +Q         Q        +Q        E  E
e|-(20)pb22---20pb22---(20)pb22-----24b27-|
B|----------------------------------------|
G|----------------------------------------|
D|----------------------------------------|
A|----------------------------------------|
E|----------------------------------------|
|
 |   E      E  E     E   E      E E  E
e|----------------------------------------|
B|-------------1--------------------------|
G|----------3--------3--------------------|
D|---3------------------------------------|
A|-----------------------1--------3--4----|
E|------------------------------0-1--2----|


   G7                               Bbsus2                                F5 F#5
                                                                           ~~
    +Q         Q       Q       E     E    +E.   S  S  S  S  S  S  S  S  S  Q
e|-(24)pb27---24b27---24b27---24b27r24-|-(24)-----22p18-15---------------------|
B|-------------------------------------|-------------------15------------------|
G|-------------------------------------|----------------------15p14------------|
D|-------------------------------------|----------------------------15-12------|
A|-------------------------------------|----------------------------------13---|
E|-------------------------------------|---------------------------------------|
|
|                     PM-----|
|   E      E  E    E  E    E  E     E     E  E    E     E     E     E     E E
|-------------------------------------|---------------------------------------|
|-------------3----0------------------|-----------1---------------------------|
|---------------------0---------------|------3----------3---------------------|
|--------------------------3--0-------|---3-----------------------------------|
|----------2------------------------1-|-----------------------1-----------3-4-|
|---3---------------------------------|-----------------------------0-----1-2-|


   G7                         G     F#
   W
   E E S  S  S  S  S  S  S  S  S  S  S  S
e|----------------------------------------||
B|---8-8s10-10-10-10s11-11-11-11s13-13-13-||
G|----------------------------------------||
D|---5-5s=7--7--7--7s=8--8--8--8s10-10-10-||
A|----------------------------------------||
E|----------------------------------------||
|
|                             PM---|
| E E E     E     E     E     E     E
|----------------------------------------||
|-----3-----0----------------------------||
|-----------------0----------------------||
|-----------------------3----------------||
|---2-------------------------2-----1----||
|-3---------------------------3-----2----||


     E5       F#       N.C.(F)  E5           F        E5                         E5                 C5
 5/4                                                                            4/4
                                                                                 Gtr II
      W                                                                           H..                E
                                                                                  |                  |
                                                                                  /                  /

               |------6-------|               |------6-------|
   a  S  S  E  S  S  S  S  S  S  T  S.  S  S  S  S  S  S  S  S  S  a  S  E        E   E   Q   H
|-----------------------------------------------------------------------20b22-||-20\----------------------|
|-13s18-15h18-15----15h18p15-----------18p15----15----------------------------||--------------------------|
|----------------18----------18-17p15--------18----18p17p15----17-15h16-------||--------------------------|
|-----------------------------------------------------------17----------------||--------------------------|
|-----------------------------------------------------------------------------||--------------------------|
|-----------------------------------------------------------------------------||--------------------------|
|
|                                                                                Gtr I
|              PM------|
|     E     E  E        E        E      E     E        E        Q                 Q     a E E E E E  E
|-----0--------------------------0--------------------------------------------||--------------------------|
|-----------0---------------------------0-------------------------------------||--------------------------|
|-----------------------------------------------------------------------------||--------------------------|
|-----------------------------------------------------------------------------||--------0s2---4------5----|
|--------------1------------------------------0--------2----------------------||------------2-----3-(3)---|
|--------------2--------1---------------------1--------0----------------------||--0-------------0---------|


                E5                               G5F#5     F#F5      E5
  +H.            E       E        S E.   Q   Q   E E   Q   E E Q   E E
   |             |       |        |              | |       | |     | |
   /             /       /        /              / /       / /     / /

    H        Q    S   S   S   S    W                    W
e|---------------17p=15--12------|--------------------|-----------------||
B|---------------------------12--|--------------------|-----------------||
G|-------------------------------|--------------------|-----------------||
D|-------------------------------|--------------------|-----------------||
A|-------------------------------|--------------------|-----------------||
E|-------------------------------|--------------------|-----------------||
|
 |     PM------|                                  PM|       PM|     PM
 | +E  E E E E E  S   S   S   S    S E. a E E E E E E   E E E E E E E E
e|-------------------------------|--------------------|-0-------0-------||
B|---------------<5>-------------|--------------------|---0-------0-----||
G|-------------------<5>---------|--------------------|-----------------||
D|-(5)-------5-5---------<5>-----|------0h2---4-------|-----------------||
A|-(3)-3-3-3-3-3-------------<7>-|-2--------2-2---2-1-|-----1-0-----0-2-||
E|-------------------------------|-0------------0-3-2-|-----2-1-----1-0-||


     E5              C5
     Gtrs I, II
     PM|         PM            PM-------------
     E E a E E E E E  E    +E  E E E E E E E
e||----------------------|-------------------|
B||o---------------------|-------------------|
G||----------------------|-------------------|
D||------0h2---4------5--|-(5)-5-5-5-5-5-5-5-|
A||o-2-2-----2-----3-(3)-|-(3)-3-3-3-3-3-3-3-|
E||--0-0---------0-------|-------------------|


  E5            G F#  E5  F#F E5  F E5
 ---|         PM--|       PM|     PM
  E E a E E E E E E   E E E E E E E E   3x
|-------------------|-0-------0---------||
|-------------------|---0-------0------o||
|-------------------|-------------------||
|-----0-2---4-------|-------------------||
|-2-2-----2-----2-1-|-----1-0-----0-2--o||
|-0-0---------0-3-2-|-----2-1-----1-0---||


   E5              C5
   Gtr IV
   W                      W
e|---------------------|-------------------|
B|---------------------|-------------------|
G|---------------------|-------------------|
D|---------------------|-------------------|
A|---------------------|-------------------|
E|---------------------|-------------------|
|
 | Gtrs I, II
 | PM|         PM            PM-------------
 | E E a E E E E E  E    +E  E E E E E E E
e|---------------------|-------------------|
B|---------------------|-------------------|
G|---------------------|-------------------|
D|-----0h2---4------5--|-(5)-5-5-5-5-5-5-5-|
A|-2-2-----2-----3-(3)-|-(3)-3-3-3-3-3-3-3-|
E|-0-0---------0-------|-------------------|


   E5            G F   E5  F#F E5  F  E5
   W                   H       Q   E.   S
e|-------------------|-------------------------|
B|-------------------|-------------------------|
G|-------------------|------------------5pb7===|
D|-------------------|-------------------------|
A|-------------------|-------------------------|
E|-------------------|-------------------------|
|
|---|         PM--|       PM|     PM
| E E a E E E E E E   E E E E E E E  E
|-------------------|-0-------0---------------|
|-------------------|---0-------0-------------|
|-------------------|-------------------------|
|-----0-2---4-------|-------------------------|
|-2-2-----2-----2-1-|-----1-0-----0--2--------|
|-0-0---------0-3-2-|-----2-1-----1--0--------|


  2nd Guitar Solo
   G7                         Bbsus2                  F5F#5
                                   ~~~                ~
   +Q.     +S   S S S S S S S E   +Q.     S S S S S S Q
e|------------------------------|---------6s8-8-8---------|
B|------------------------------|-------------------------|
G|-(5)-----(5)r-3---3-----------|---------3s5-5-5-5s7-5---|
D|----------------5---5p3-------|-------------------------|
A|------------------------5-3---|-------------------------|
E|----------------------------6-|-(6)---------------------|
|
|  PM------------|
|  E  E E  E     E   E   E   E    E  E E E   E   E   E E
|------------------------------|-------------------------|
|----------0-------------------|-------1-----------------|
|-------0--------0-------------|-----3---3---------------|
|-----0--------------3---0-----|--3----------------------|
|--2-------------------------1-|-------------1-------3-4-|
|------------------------------|-----------------0---1-2-|


   G7                  Bbsus2                   F5    F#5
   PM
             |-3-|
   E E E E E S S S S S E      +E  +E  E  E  Q    S  S  E
e|--------------------------|-----------------------------|
B|-------6-8-6-8-6---6-6b8==|=(6)r(6)---------------------|
G|-0-5-7-----------7--------|---------7-10-10-------------|
D|--------------------------|-----------------------------|
A|--------------------------|-------------------------14--|
E|--------------------------|-------------------10s15-----|
|
|         PM------|
| E E E E E E     E   E       E   E  E  E  E E  E     E
|--------------------------|-----------------------------|
|-----3-0------------------|---------1-------------------|
|---------0----------------|------3-----3----------------|
|-----------3-----0--------|--3--------------------------|
|---2-----------------1----|---------------1----3-----4--|
|-3------------------------|-----------------0--1-----2--|


   G7                                  Bbsus2                                   F5 F#5
                              ~~~~~                                              ~~
    S  S  S  S  S  S  E      +Q      E  E    S  S  S  S  S  S  S  S  S  S  S  S  E  +S  S
e|----------------------------------------|----22-18-------------18-15--------------------|
B|-------------------18b20==(18)r---15-18-|-18-------22-18s15-15-------18-15--------------|
G|----------15-18-15----------------------|----------------------------------18-19-(19)p0-|
D|----15-17-------------------------------|-----------------------------------------------|
A|-17-------------------------------------|-----------------------------------------------|
E|----------------------------------------|-----------------------------------------------|
|
|                            PM----|
|  E     E     E     E       E   E  E  E    E     E     E     E     E     E     E   E
|----------------------------------------|-----------------------------------------------|
|--------------3-----0-------------------|--------------1--------------------------------|
|----------------------------0-----------|--------3-----------3--------------------------|
|--------------------------------3--0----|--3--------------------------------------------|
|--------2-----------------------------1-|--------------------------1-----------3---4----|
|--3-------------------------------------|--------------------------------0-----1---2----|


   G7                         G  F#   E5    F# F  E5     F     E5
                       ~~~~~                    ~~~~~~~
    Q       +E   S  S  Q       E  E    E  E  E  E  +Q     +Q
e|-20b22r==(20)-15------------------|-----------------------------|
B|-----------------18-18b20---------|-----------------------------|
G|----------------------------15s17-|-17h18-18p17-(17)---(17)\----|
D|----------------------------------|-----------------------------|
A|----------------------------------|-----------------------------|
E|----------------------------------|-----------------------------|
|
 |                             PM|           PM|
 |  E    E   E   E     E    E  E  E    E  E  E  E   E  E   E   E
e|----------------------------------|--0------------0-------------|
B|-----------3---0------------------|-----0------------0----------|
G|---------------------0------------|-----------------------------|
D|--------------------------3-------|-----------------------------|
A|-------2---------------------2--1-|--------1-------------0---2--|
E|--3--------------------------3--2-|--------2--1----------1---0--|


   3rd Guitar Solo
    Q=172
    E5                                                             G5E5
    Gtrs I, II
        PM---------------------------------------------------|
    Q   E   E   E   E   S   S   E     E   E   S   S   E   S   S  E E E
||---------------------------------|-----------------------------------|
||o--------------------------------|-----------------------------------|
||---------------------------------|-----------------------------------|
||---------------------------------|-----------------------------------|
||o-2------------------------------|-----------------------------2-5-2-|
||--0--<3>-<3>-<3>-<3>-<3>-<3>-<3>-|-<3>-<3>-<3>-<3>-<3>-<3>-<3>-0-3-0-|


   F#G5  F#5     G5        F#5     G5
       PM  PM|       PM|     PM|
   E E E E E E E E   E E E E E E E E
e|-----------------|-----------------|
B|-----------------|-----------------|
G|-----------------|-----------------|
D|-----------------|-----------------|
A|-4-5---4-----4-5-|-----5-4-----4-5-|
E|-2-3-0-2-0-0-2-3-|-0-0-3-2-0-0-2-3-|


  1.
  E5                                                             G5E5
      PM---------------------------------------------------|
  Q   E   E   E   E   S   S   E     E   E   S   S   E   S   S  E E E
|--------------------------------|-----------------------------------|
|--------------------------------|-----------------------------------|
|--------------------------------|-----------------------------------|
|--------------------------------|-----------------------------------|
|-2------------------------------|-------------------------------5-2-|
|-0--<3>-<3>-<3>-<3>-<3>-<3>-<3>-|-<3>-<3>-<3>-<3>-<3>-<3>-<3>-0-3-0-|


   F#G         F#G         F#      G
       PM  PM|       PM|     PM|
   E E E E E E E E   E E E E E E E E
e|-----------------|-------------------||
B|-----------------|------------------o||
G|-----------------|-------------------||
D|-----------------|-------------------||
A|-1-2---1-----1-2-|-----2-1-----1-2--o||
E|-2-3-0-2-0-0-2-3-|-0-0-3-2-0-0-2-3---||


   2.
   E5                                                              G5   E5
   Gtr IV
   W                                 H                    Q          Q
e|--------------------------------|---------------------------------------|
B|--------------------------------|---------------------------------------|
G|--------------------------------|---------------------[14]-------[14]---|
D|--------------------------------|---------------------------------------|
A|--------------------------------|---------------------------------------|
E|--------------------------------|---------------------------------------|
|
| Gtrs I, II
|     PM----------------------------------------------------|
| Q   E   E   E   E   S   S   E     E   E   S   S   E    S   S  E   E  E
|--------------------------------|---------------------------------------|
|--------------------------------|---------------------------------------|
|--------------------------------|---------------------------------------|
|--------------------------------|---------------------------------------|
|-2------------------------------|----------------------------------5--2-|
|-0--<3>-<3>-<3>-<3>-<3>-<3>-<3>-|-<3>-<3>-<3>-<3>-<3>--<3>-<3>-0---3--0-|


   F#   G   F#      G                    F#         G
     W                    Q         +Q       Q.     S  S
e|--------------------|-------------------------------17b19r=|
B|--------------------|--------------------------------------|
G|-[14]---------------|-[14]b16====(14)r---[14]--------------|
D|--------------------|--------------------------------------|
A|--------------------|--------------------------------------|
E|--------------------|--------------------------------------|
|
|        PM  PM|         PM-----|           PM-|
|   E  E E E E E E E     E      E   E   E   E  E E E
|--------------------|--------------------------------------|
|--------------------|--------------------------------------|
|--------------------|--------------------------------------|
|--------------------|--------------------------------------|
|---1--2---1-----1-2-|--------------2---1--------1-2--------|
|---2--3-0-2-0-0-2-3-|---0------0---3---2---0--0-2-3--------|


   E5                                                                         G5E5
    H              Q        E       E       H                      +Q.           E
e|-17b19----------17---------------17b19r|=17b19==================(17)r---------17b19r|
B|---------------------------------------|--------------------------------------------|
G|------------------------[14]-----------|--------------------------------------------|
D|---------------------------------------|--------------------------------------------|
A|---------------------------------------|--------------------------------------------|
E|---------------------------------------|--------------------------------------------|
|
|         PM-----------------------------------------------------------|
|  Q      E   E   E   E    S   S   E       E      E   S   S   E    S    S  E E  E
|---------------------------------------|--------------------------------------------|
|---------------------------------------|--------------------------------------------|
|---------------------------------------|--------------------------------------------|
|---------------------------------------|--------------------------------------------|
|--2------------------------------------|----------------------------------2-5--2----|
|--0-----<3>-<3>-<3>-<3>--<3>-<3>-<3>---|-<3>----<3>-<3>-<3>-<3>--<3>--<3>-0-3--0----|


   F#5      G5    F#5                    G5                 F#5                    G5
    +Q         E.    S     +Q         E  E    Q        +E.     S     +Q         E.   S
e|-(17)b19====17r---17b19r(17)b19====17r---|-17b19====(17)r---17b19r(17)b19====17r-----|
B|-----------------------------------------|-------------------------------------------|
G|-----------------------------------------|-------------------------------------------|
D|-----------------------------------------|-------------------------------------------|
A|-----------------------------------------|-------------------------------------------|
E|-----------------------------------------|-------------------------------------------|
|
|             PM           PM-----|          PM----|                 PM-----|
|   E      E  E  E         E      E  E  E    E     E   E   E         E      E  E  E
|-----------------------------------------|-------------------------------------------|
|-----------------------------------------|-------------------------------------------|
|-----------------------------------------|-------------------------------------------|
|-----------------------------------------|-------------------------------------------|
|---4------5-----4-------------------4--5-|------------5---4-------------------4--5---|
|---2------3--0--2---------0------0--2--3-|--0-----0---3---2---------0------0--2--3---|


  E5
   |--3--|
   S  S  S  E  S   S  S   S  S   S  S   S  S   S   S   S
|-17p15p12-12-12--12-------------------------------------|
|--------------------17p=15p12--17p15p=12-17p=15p=12-----|
|-----------------------------------------------------15-|
|--------------------------------------------------------|
|--------------------------------------------------------|
|--------------------------------------------------------|
|
 |              PM-----------------------------------------
 |  Q           E      E      E      E      S   S   E
e|--------------------------------------------------------|
B|--------------------------------------------------------|
G|--------------------------------------------------------|
D|--------------------------------------------------------|
A|--2-----------------------------------------------------|
E|--0----------<3>----<3>----<3>----<3>----<3>-<3>-<3>----|


                                           G5 E5   F# G           F#                     G
    E   S   S  S   S   S   S  S   S   S  S  E  e    E  S  S  S  S  S  S  S  S  S  S S  S  S  S
e|-----------------------------------------------|----------------------------------------------|
B|-12--------------------------------------------|----------------------------------------------|
G|-----15p=14p12--15p=14p=12-15p=14p=12----12----|----------------------------------------------|
D|--------------------------------------14----14-|-13-12-14p13p12----14p13p12-------------------|
A|-----------------------------------------------|----------------14----------14p13---14p13p12--|
E|-----------------------------------------------|----------------------------------------------|
|
|-------------------------------|                           PM          PM---|
|  E   E      S   S   E      S   S   E     E  E    E  E     E     E     E     E    E     E
|-----------------------------------------------|----------------------------------------------|
|-----------------------------------------------|----------------------------------------------|
|-----------------------------------------------|----------------------------------------------|
|-----------------------------------------------|----------------------------------------------|
|------------------------------------------5--2-|--1--2-----------1----------------1-----2-----|
|-<3>-<3>----<3>-<3>-<3>----<3>-<3>--0-----3--0-|--2--3-----0-----2-----0-----0----2-----3-----|


               G     F#             G    E5
    S  S  S  S  S  S  E  E  E  S  S  E   H.                   E       E
e|-------------------------------------|---------------------------------|
B|-------------------------------------|---------------------------------|
G|-------------------------------------|---------------------------------|
D|-------------------------------------|---------------------------------|
A|-14p13p12----14p13p12-10-12-10-12p10-|-----------------------------<5>-|
E|----------14-------------------------|-0--------------------0----------|
|
|  PM---|               PM|                  PM--------------------------
|  E     E     E     E  E  E  E     E   Q    E   E   E   E   S   S   E
|-------------------------------------|---------------------------------|
|-------------------------------------|---------------------------------|
|-------------------------------------|---------------------------------|
|-------------------------------------|---------------------------------|
|--------------2-----1--------1-----2-|-2-------------------------------|
|--0-----0-----3-----2--0--0--2-----3-|-0---<3>-<3>-<3>-<3>-<3>-<3>-<3>-|


                                  G5   E5  F#5   G5       F#5             G5
                                                              |---3---|
   E   E   S   E      S  E      E S E.      S  S  E  S  S  E  E  E    E E  S  S
|----------------------------------------|---------------------------------------|
|----------------------------------------|---------------------------------------|
|----------------------------------------|--------------------------------14-----|
|----------------------------------------|-------------------12-13---14------14--|
|--3---0---3p==0------3p=0--------3p0----|-10h12p10-12h13-14---------------------|
|-------------------------------4--------|---------------------------------------|
|
|---------------------------|                        PM       PM---|
|  E   E   S   S   E     S   S  E E    E    E     E  E     E  E    E    E  E
|----------------------------------------|---------------------------------------|
|----------------------------------------|---------------------------------------|
|----------------------------------------|---------------------------------------|
|----------------------------------------|---------------------------------------|
|-------------------------------2-5----2-|--4-----5--------4------------4--5-----|
|-<3>-<3>-<3>-<3>-<3>---<3>-<3>-0-3----0-|--2-----3--0-----2--0----0----2--3-----|


              G5    F#5                     G5     |
                                                   |
    S  S  S  S  S  S  S  S  S  S  S  S  S  S  S  S  |
e|-------------------------------------------------||
B|-------------------------12-12h15p12-15-15-17p15-||
G|-12h14-12h14-15p14p12----------------------------||
D|----------------------14-------------------------||
A|-------------------------------------------------||
E|-------------------------------------------------||

 E5
              |-------6--------|
  S  S  S  S  S   S  S  S   S  S  S   S  T   T  S  S   S   S   T  T
----------------------------------------12h=15h17-------------12h15h|
-17p15p12-15h17p=15p12-17p=15p12-15h=17-----------12h=15h=17--------|
--------------------------------------------------------------------|
--------------------------------------------------------------------|
--------------------------------------------------------------------|
--------------------------------------------------------------------|
|
|  PM---|                  PM---|                  |
|  E     E     E     E     E     E     E     E     |
|-------------------------------------------------||
|-------------------------------------------------||
|-------------------------------------------------||
|-------------------------------------------------||
|--------------5-----4-----------------4-----5----||
|--0-----0-----3-----2-----0-----0-----2-----3----||

                PM-----------------------------------------------------
    Q           E         E         E      E         S   S   E
e|--------------------------------------------------------------------|
B|--------------------------------------------------------------------|
G|--------------------------------------------------------------------|
D|--------------------------------------------------------------------|
A|--2-----------------------------------------------------------------|
E|--0----------<3>-------<3>-------<3>----<3>-------<3>-<3>-<3>-------|


                                              G5 E5
    E   S   S  S   T   T  E   S   S   S  T  T  E  T  T  S
e|-17-------------12h=15h17-------------12h15h17-17p15p12-|
B|-----12h=15h17-------------12h=15h=17-------------------|
G|--------------------------------------------------------|
D|--------------------------------------------------------|
A|--------------------------------------------------------|
E|--------------------------------------------------------|
|
|-------------------------------|
|  E   E      S   S      E   S   S   E        E  E
|--------------------------------------------------------|
|--------------------------------------------------------|
|--------------------------------------------------------|
|--------------------------------------------------------|
|---------------------------------------------5--2-------|
|-<3>-<3>----<3>-<3>----<3>-<3>-<3>--0--------3--0-------|


  F#    G      F#                      G                      F#                  G
                               |------6-------|                           |--3--|
   Q       +E   E  S  S  S  S  S  S  S  S  S  S    E.    S  E  S  S  Q    S  S  S  S  S
|-17b18r==(17)-12-17p15p12----------------------|---------------------------------------|
|--------------------------17-17p15p12-17p15p12-|------------------------15p14p12-15p12-|
|-----------------------------------------------|-15----12------------------------------|
|-----------------------------------------------|----------15-15p12-14------------------|
|-----------------------------------------------|---------------------------------------|
|-----------------------------------------------|---------------------------------------|
|
 |           PM     PM---|                          PM-|              PM|
 |  E    E   E   E  E     E     E        E          E  E     E  E     E E  E        E
e|-----------------------------------------------|---------------------------------------|
B|-----------------------------------------------|---------------------------------------|
G|-----------------------------------------------|---------------------------------------|
D|-----------------------------------------------|---------------------------------------|
A|--1----2-------1--------------1--------2-------|-----------2--1----------1--------2----|
E|--2----3---0---2--0-----0-----2--------3-------|--0--0-----3--2-----0-0--2--------3----|


   E5
    S  S  S  S  S   S  S   S  S   S  S   S  S   S   S   S
e|----------------------------------------------------------|
B|-15p12----12-15p=12-17p=12-----12-15p=12-17p=12------12---|
G|-------15------------------15--------------------15-------|
D|----------------------------------------------------------|
A|----------------------------------------------------------|
E|----------------------------------------------------------|
|
|              PM---------------------------------|
|  Q           E      E      E      E      S   S   E
|----------------------------------------------------------|
|----------------------------------------------------------|
|----------------------------------------------------------|
|----------------------------------------------------------|
|--2-------------------------------------------------------|
|--0----------<3>----<3>----<3>----<3>----<3>-<3>-<3>------|


                                              G5    E5
    S   S  S   S  S   S   S   S  S   S   S  S  S  S  S  S
e|--------------------------------------------------------|
B|-17p=12-----12-15p=12--17p=12-----12--15p12-17p12----12-|
G|--------15--------------------15------------------15----|
D|--------------------------------------------------------|
A|--------------------------------------------------------|
E|--------------------------------------------------------|
|
|  PM------------------------------|
|  E      E      S   S   E      S   S   E     E     E
|--------------------------------------------------------|
|--------------------------------------------------------|
|--------------------------------------------------------|
|--------------------------------------------------------|
|---------------------------------------2-----5-----2----|
|-<3>----<3>----<3>-<3>-<3>----<3>-<3>--0-----3-----0----|


   F#5   G5          F#5                     G5                        F#5                     G5
    S  S  S  S  S  S  S  S  S  S  S  S  S  S  S  S    S  S  S  S  S  S  S  S  S  S  S  S  S  S  S  S
e|-------------------------------------------------|-------------------------------------------------|
B|-17p12----12-15p12-17p12----12-15p12-17p12----12-|-17p12----12-15p12-17p12----12-15p12-17p12----12-|
G|-------15----------------15----------------15----|-------15----------------15----------------15----|
D|-------------------------------------------------|-------------------------------------------------|
A|-------------------------------------------------|-------------------------------------------------|
E|-------------------------------------------------|-------------------------------------------------|
|
|              PM          PM---|                    PM---|                  PM---|
|  E     E     E     E     E     E     E     E       E     E     E     E     E     E     E     E
|-------------------------------------------------|-------------------------------------------------|
|-------------------------------------------------|-------------------------------------------------|
|-------------------------------------------------|-------------------------------------------------|
|-------------------------------------------------|-------------------------------------------------|
|--4-----5-----------4-----------------4-----5----|--------------5-----4-----------------4-----5----|
|--2-----3-----0-----2-----0-----0-----2-----3----|--0-----0-----3-----2-----0-----0-----2-----3----|


   E5                                                     |
    S  S  S  S  S   S  S   S  S   S  S   S  S   S   S   S |
e|--------------------------------------------------------|
B|-15p12----12-17p=12-----12-15p=12-----12-17p=12------12-|
G|-------16-----------16------------16-------------16-----|
D|--------------------------------------------------------|
A|--------------------------------------------------------|
E|--------------------------------------------------------|

                                              G5    E5
    S   S  S   S  S   S   S   S  S   S   S  S  S  S  S  S
e|--------------------------------------------------------|
B|-15p=12-----12-17p=12------12-15p=12-----12-17p12----12-|
G|--------16-------------16-------------16----------16----|
D|--------------------------------------------------------|
A|--------------------------------------------------------|
E|--------------------------------------------------------|
|
|              PM----------------------------------------|
|  Q           E      E      E      E      S   S   E     |
|--------------------------------------------------------|
|--------------------------------------------------------|
|--------------------------------------------------------|
|--------------------------------------------------------|
|--2-----------------------------------------------------|
|--0----------<3>----<3>----<3>----<3>----<3>-<3>-<3>----|

-----------------------------------|
   E      E      S   S   E      S   S   E     E     E
|--------------------------------------------------------|
|--------------------------------------------------------|
|--------------------------------------------------------|
|--------------------------------------------------------|
|---------------------------------------------5-----2----|
|-<3>----<3>----<3>-<3>-<3>----<3>-<3>--0-----3-----0----|


   F#    G        F#                   G                   F#                   G
    S  S  S  S  E  S  S  E  S  S  S  S  S  S    E  S  S  E  S  S  S  S  S  S  E  S  S
e|-------------------------------------------|------------------------------------------|
B|-17p15p12----12-17p15p12----12-17p15p12----|-12-17p15p12----12-17-15p12----12-12------|
G|----------15-------------15-------------15-|-------------15-------------15-------12---|
D|-------------------------------------------|------------------------------------------|
A|-------------------------------------------|------------------------------------------|
E|-------------------------------------------|------------------------------------------|
|
|              PM       PM|                    PM|               PM---|
|  E     E     E  E     E  E     E     E       E  E     E  E     E     E     E  E
|-------------------------------------------|------------------------------------------|
|-------------------------------------------|------------------------------------------|
|-------------------------------------------|------------------------------------------|
|-------------------------------------------|------------------------------------------|
|--1-----2--------1--------------1-----2----|-----------2--1-----------------1--2------|
|--2-----3-----0--2-----0--0-----2-----3----|--0--0-----3--2-----0-----0-----2--3------|


   E5
    S  S  S  S  S   S  S   S  S   S  S   S  S   S   S   S
e|--------------------------------------------------------|
B|-17p15p12----17p=15p12-----17p=15p12-----17p=15p=12-----|
G|----------12------------12------------12-------------12-|
D|--------------------------------------------------------|
A|--------------------------------------------------------|
E|--------------------------------------------------------|
|
 |              PM-----------------------------------------
 |  Q           E      E      E      E      S   S   E
e|--------------------------------------------------------|
B|--------------------------------------------------------|
G|--------------------------------------------------------|
D|--------------------------------------------------------|
A|--2-----------------------------------------------------|
E|--0----------<3>----<3>----<3>----<3>----<3>-<3>-<3>----|


                                              G5    E5      F#5   G5          F#5                     G5
    S   S  S   S  S   S   S   S  S   S   S  S  S  S  S  S    S  S  S  S  S  S  S  S  S  S  S  S  S  S  S  S
e|--------------------------------------------------------|-------------------------------------------------|
B|-18p=16p13-----18p=16p=13-----18p=16p=13----18p16p13----|-19p17p14----19p17p14----19p17p14----19p17p14----|
G|------------13-------------13------------13----------13-|----------14----------14----------14----------14-|
D|--------------------------------------------------------|-------------------------------------------------|
A|--------------------------------------------------------|-------------------------------------------------|
E|--------------------------------------------------------|-------------------------------------------------|
|
|----------------------------------|                                    PM          PM---|
|  E      E      S   S   E      S   S   E     E     E       E     E     E     E     E     E     E     E
|--------------------------------------------------------|-------------------------------------------------|
|--------------------------------------------------------|-------------------------------------------------|
|--------------------------------------------------------|-------------------------------------------------|
|--------------------------------------------------------|-------------------------------------------------|
|---------------------------------------2-----5-----2----|--4-----5-----------4-----------------4-----5----|
|-<3>----<3>----<3>-<3>-<3>----<3>-<3>--0-----3-----0----|--2-----3-----0-----2-----0-----0-----2-----3----|


               G5    F#5                     G5      E5
    S  S  S  S  S  S  S  S  S  S  S  S  S  S  S  S    S  S  S  S  S   S  S   S  S   S  S   S  S   S   S   S
e|-------------------------------------------------|--------------------------------------------------------|
B|-20p18p15----20p18p15----20p18p15----20p18p15----|-21p19p16----21p=19p16-----22p=20p17-----22p=20p=17-----|
G|----------15----------15----------15----------15-|----------16------------16------------17-------------17-|
D|-------------------------------------------------|--------------------------------------------------------|
A|-------------------------------------------------|--------------------------------------------------------|
E|-------------------------------------------------|--------------------------------------------------------|
|
|  PM---|                  PM---|                                PM-----------------------------------------
|  E     E     E     E     E     E     E     E       Q           E      E      E      E      S   S   E
|-------------------------------------------------|--------------------------------------------------------|
|-------------------------------------------------|--------------------------------------------------------|
|-------------------------------------------------|--------------------------------------------------------|
|-------------------------------------------------|--------------------------------------------------------|
|--------------5-----4-----------------4-----5----|--2-----------------------------------------------------|
|--0-----0-----3-----2-----0-----0-----2-----3----|--0----------<3>----<3>----<3>----<3>----<3>-<3>-<3>----|


                                              G5    E5
    S   S  S   S  S   S   S   S  S   S   S  S  S  S  S  S
e|--------------------------------------------------------|
B|-23p=21p18-----23p=21p=18-----24p=22p=19----24p22p19----|
G|------------18-------------18------------19----------19-|
D|--------------------------------------------------------|
A|--------------------------------------------------------|
E|--------------------------------------------------------|
|
|----------------------------------|
|  E      E      S   S   E      S   S   E     E     E
|--------------------------------------------------------|
|--------------------------------------------------------|
|--------------------------------------------------------|
|--------------------------------------------------------|
|---------------------------------------2-----5-----2----|
|-<3>----<3>----<3>-<3>-<3>----<3>-<3>--0-----3-----0----|


  F#5   G5  F#5         G5                        F#5       G5
                             |-------3-------|
   H           H             Q       Q       Q       Q       Q
|-22b24-------22b24-------|-22b24---22b24---22b24---22b24---22b25---||
|-------------------------|-----------------------------------------||
|-------------------------|-----------------------------------------||
|-------------------------|-----------------------------------------||
|-------------------------|-----------------------------------------||
|-------------------------|-----------------------------------------||
|
|         PM   PM---|        PM---|                  PM---|
|  E    E E E  E    E E E    E    E       E       E  E    E  E    E
|-------------------------|-----------------------------------------||
|-------------------------|-----------------------------------------||
|-------------------------|-----------------------------------------||
|-------------------------|-----------------------------------------||
|--4----5---4---------4-5-|---------------5-------4----------5------||
|--2----3-0-2--0----0-2-3-|--0----0-------3-------2--0----0--3------||


   N.C.(Em7)                                B5
                                \0.5____\1_______
   W                 +H        +Q       Q
e|-----------------|----------------------------|
B|-----------------|----------------------------|
G|-----------------|----------------------------|
D|-----------------|----------------------------|
A|-----------------|----------------------------|
E|-0---------------|-(0)-------(0)------0-------|
|
 |     PM|   PM|         PM|          PM|
 | E E E E E E E E    E  E E E  E     E E   E
e|-----------------|----------------------------|
B|-----------------|----------------------------|
G|-----------------|----------------------------|
D|-----------------|----------------------------|
A|-5h7-----7-----5h|==7------5h=7-----------9---|
E|-----0-0---0-0---|-----0-0----------0-0---7---|


   N.C.(Em7)                                     B5
   \1.5__________________\2________\2.5____\3.5_____
   W                     H         Q       Q
e|---------------------|---------------------------|
B|---------------------|---------------------------|
G|---------------------|---------------------------|
D|---------------------|---------------------------|
A|---------------------|---------------------------|
E|-0-------------------|-0---------0-------0-------|
|
 |         PM|   PM|         PM|         PM|
 | E     E E E E E E E   E   E E E E     E E     E
e|---------------------|---------------------------|
B|---------------------|---------------------------|
G|---------------------|---------------------------|
D|---------------------|---------------------------|
A|-5h====7-----7-----5h|=7-------5h7-------------9-|
E|---------0-0---0-0---|-----0-0---------0-0-----7-|


   N.C.(Em7)                                     B5
   /2.5________/1.5__________/1________/0.5____/
   H           H             H         Q       Q
e|-------------------------|-----------------------|
B|-------------------------|-----------------------|
G|-------------------------|-----------------------|
D|-------------------------|-----------------------|
A|-------------------------|-----------------------|
E|-0-----------0-----------|-0---------0-------0---|
|
 |         PM|       PM|         PM|         PM|
 | E     E E E E     E E E   E   E E E E     E E E
e|-------------------------|-----------------------|
B|-------------------------|-----------------------|
G|-------------------------|-----------------------|
D|-------------------------|-----------------------|
A|-5h====7-----7---------5h|=7-------5h7---------9-|
E|---------0-0-------0-0---|-----0-0---------0-0-7-|


   N.C.(Em7)                       B5
   H       H         W
e|-----------------|-----------------|
B|-----------------|-----------------|
G|-----------------|-----------------|
D|-----------------|-----------------|
A|-----------------|-----------------|
E|-0---------------|-----------------|
|
 |     PM|   PM|       PM|     PM|
 | E E E E E E E E   E E E E E E E E
e|-----------------|-----------------|
B|-----------------|-----------------|
G|-----------------|-----------------|
D|-----------------|-----------------|
A|-5h7-----7-----5h|=7-----5h7-----9-|
E|-----0-0---0-0---|---0-0-----0-0-7-|


  N.C.(Em7)                                   B5
  Gtr I
  |---3---|   |---3---|     |---3---|
  Q   Q   Q   Q   Q   Q     Q   Q   Q   Q   Q
|-------------------------|---------------------|
|-------------------------|---------------------|
|-----7---------------7---|-----9---------------|
|-5-------5-------5-------|-7---------------9---|
|-------------7-----------|---------7---6-------|
|-------------------------|---------------------|
|
 | Gtr II
 |       PM--|   PM--|         PM--|       PM|
 | E E   E   E E E   E   E   E E   E   E E E E E
e|-------------------------|---------------------|
B|-------------------------|---------------------|
G|-------------------------|---------------------|
D|-------------------------|---------------------|
A|-5h7---------7---------5h|=7---------5h7-----9-|
E|-------0---0---0---0-----|---0---0-------0-0-7-|


   N.C.(Em7)                           B5
   ~~~~~~~~~~~~~~~~~~~~~~
   W                 +H        +Q    Q
e|-----------------|---------------------|
B|-----------------|---------------------|
G|-----------------|---------------------|
D|-----------------|---------------------|
A|-7---------------|-(7)-------(7)s==9---|
E|-----------------|---------------------|
|
 |     PM|   PM|         PM|       PM|
 | E E E E E E E E    E  E E E  E  E E E
e|-----------------|---------------------|
B|-----------------|---------------------|
G|-----------------|---------------------|
D|-----------------|---------------------|
A|-5h7-----7-----5h|==7------5h=7------9-|
E|-----0-0---0-0---|-----0-0-------0-0-7-|


  N.C.(Em7)                                       B5
  |---3---|   |---3---|     |---3---|   |---3---|
  Q   Q   Q   Q   Q   Q     Q   Q   Q   Q   Q   Q
|-------------------------|--------------------------|
|-------------------------|--------------------------|
|-----7---------------7---|---------8-----------7----|
|-5-------5-------5-------|-----4-----------3--------|
|-------------7-----------|-6-----------5------------|
|-------------------------|--------------------------|
|
|       PM--|   PM--|         PM--|       PM--|
| E E   E   E E E   E   E   E E   E   E E E   E   E
|-------------------------|--------------------------|
|-------------------------|--------------------------|
|-------------------------|--------------------------|
|-------------------------|--------------------------|
|-5h7---------7---------5h|=7---------5h7---------9--|
|-------0---0---0---0-----|---0---0-------0---0---7--|


   N.C.(Em7)                         B5
   ~~~~~~~~~~~~~~~~~~~~~~
   W                 +H.           Q
e|-----------------|-------------------|
B|-----------------|-------------------|
G|-----------------|-------------------|
D|-----------------|-------------------|
A|-7---------------|-(7)---------------|
E|-----------------|-------------------|
|
 |     PM|   PM|         PM|     PM|
 | E E E E E E E E    E  E E E E E E E
e|-----------------|-------------------|
B|-----------------|-------------------|
G|-----------------|-------------------|
D|-----------------|-------------------|
A|-5h7-----7-----5h|==7------5h7-----9-|
E|-----0-0---0-0---|-----0-0-----0-0-7-|


  N.C.(Em7)                                   B5
  |---3---|   |---3---|     |---3---|
  Q   Q   Q   Q   Q   Q     Q   Q   Q   Q   Q
|-------------------------|---------------------|
|-------------------------|---------------------|
|-----7---------------7---|-----9---------------|
|-5-------5-------5-------|-7---------------9---|
|-------------7-----------|---------7---6-------|
|-------------------------|---------------------|
|
 |       PM--|   PM--|         PM--|       PM|
 | E E   E   E E E   E   E   E E   E   E E E E E
e|-------------------------|---------------------|
B|-------------------------|---------------------|
G|-------------------------|---------------------|
D|-------------------------|---------------------|
A|-5h7---------7---------5h|=7---------5h7-----9-|
E|-------0---0---0---0-----|---0---0-------0-0-7-|


   N.C.(Em7)                            B5
   ~~~~~~~~~~~~~~~~~~~~~~~~~
   H       +E  Q.       +H.           Q
e|--------------------|-------------------|
B|--------------------|-------------------|
G|--------------------|-------------------|
D|--------------------|-------------------|
A|-7-------(7)-7------|-(7)-----------9---|
E|--------------------|-------------------|
|
 |     PM|     PM-|         PM|     PM|
 | E E E E  E  E  E E    E  E E E E E E E
e|--------------------|-------------------|
B|--------------------|-------------------|
G|--------------------|-------------------|
D|--------------------|-------------------|
A|-5h7------7-------5h|==7------5h7-----9-|
E|-----0-0-----0--0---|-----0-0-----0-0-7-|


  N.C.(Em7)                 N.C.
  |---3---|   |---3---|     |-3-| |-3-|
  Q   Q   Q   Q   Q   Q     Q Q Q Q Q Q
|-------------------------|---------------|
|-------------------------|---------------|
|-----7---------------7---|-----8-----7---|
|-5-------5-------5-------|---4-----3-----|
|-------------7-----------|-6-----5-------|
|-------------------------|---------------|
|
|       PM--|   PM--|
|                           |-3-| |-3-|
| E E   E   E E E   E   E   Q Q Q Q Q Q
|-------------------------|---------------|
|-------------------------|---------------|
|-------------------------|-----8-----7---|
|-------------------------|---4-----3-----|
|-5h7---------7---------5-|-6-----5-------|
|-------0---0---0---0-----|---------------|


   N.C.(Em7)                         B5  N.C.(Em7)                       B5
   ~~~~~~~~~~~~~~~~~~~~~~~~~~~~~~            PM|   PM|       PM|     PM|
   W                 +H        E E Q     E E E E E E E E   E S S E E E E Q
e|-----------------|-------------------|-----------------|------------------|
B|-----------------|-------------------|-----------------|------------------|
G|-----------------|-------------------|-----------------|------------------|
D|-----------------|-------------------|-----------------|------------------|
A|-7---------------|-(7)-------7---9---|-5h7-----7-----5h|=7-----5h7-----9--|
E|-----------------|-------------0-7---|-----0-0---0-0---|---0-0-----0-0-7--|
|
 |     PM|   PM|         PM|     PM|         PM|   PM|       PM|     PM|
 | E E E E E E E E    E  E E E E E E E   E E E E E E E E   E S S E E E E Q
e|-----------------|-------------------|-----------------|------------------|
B|-----------------|-------------------|-----------------|------------------|
G|-----------------|-------------------|-----------------|------------------|
D|-----------------|-------------------|-----------------|------------------|
A|-5h7-----7-----5h|==7------5h7-----9-|-5h7-----7-----5h|=7-----5h7-----9--|
E|-----0-0---0-0---|-----0-0-----0-0-7-|-----0-0---0-0---|---0-0-----0-0-7--|


   N.C.(E5)
   Gtrs I, II
   S S E E E E E S S e   S S E E E E E S S e
e|---------------------|---------------------|
B|---------------------|---------------------|
G|---------------------|---------------------|
D|---------------------|---------------------|
A|-5-7-x-x-7-x-x-x-x-x-|-5-7-x-x-7-x-x-x-x-x-|
E|---------------------|---------------------|


                                       G5A5
   S S E E E E E S S e   S S E E E E E E E
e|---------------------|---------------------|
B|---------------------|---------------------|
G|---------------------|---------------------|
D|---------------------|---------------------|
A|-5-7-x-x-7-x-x-x-x-x-|-5-7-x-x-7-x-x-5-7---|
E|---------------------|---------------3-5---|


   F#G5  F#5     G5        F#5   G5    F#G   F#      G         F#    G5
       PM  PM|       PM|     PM|           PM  PM|       PM|     PM|
   E E E E E E E E   E E E E E E E E   E E E E E E E E   E E E E E E E E
e|-----------------|-----------------|-----------------|-----------------|
B|-----------------|-----------------|-----------------|-----------------|
G|-----------------|-----------------|-----------------|-----------------|
D|-----------------|-----------------|-----------------|-----------------|
A|-4-5---4-----4-5-|-----5-4-----5---|-1-2---1-----1-2-|-----2-1-----5---|
E|-2-3-0-2-0-0-2-3-|-0-0-3-2-0-0-3-0-|-2-3-0-2-0-0-2-3-|-0-0-3-2-0-0-3-5-|


   F#G5  F#5     G5        F#5   G5    N.C.(E5)
       PM  PM|       PM|     PM|
   E E E E E E E E   E E E E E E E E   E E E E H
e|-----------------|-----------------|--------------*|
B|-----------------|-----------------|--------------*|
G|-----------------|-----------------|--------------*|
D|-----------------|-----------------|--------------*|
A|-4-5---4-----4-5-|-----5-4-----5---|-7---7--------*|
E|-2-3-0-2-0-0-2-3-|-0-0-3-2-0-0-3-0-|---0----------*|


Duration Legend
---------------
W - whole; H - half; Q - quarter; E - 8th; S - 16th; T - 32nd; X - 64th; a - acciaccatura
+ - note tied to previous; . - note dotted; .. - note double dotted
Uncapitalized letters represent notes that are staccato (1/2 duration)

Tablature Legend
----------------
 h   - hammer-on
 p   - pull-off
 b   - bend
 pb  - pre-bend
 r   - bend release (if no number after the r, then release immediately)
 /\  - slide into or out of (from/to "nowhere")
 s   - legato slide
 S   - shift slide
  - natural harmonic
[n]  - artificial harmonic
n(n) - tapped harmonic
 ~   - vibrato
 tr  - trill
 T   - tap
 TP  - trem. picking
 PM  - palm muting
\n/  - tremolo bar dip; n = amount to dip
 \n  - tremolo bar down
 n/  - tremolo bar up
/n\  - tremolo bar inverted dip
 =   - hold bend; also acts as connecting device for hammers/pulls
 <>  - volume swell (louder/softer)
 x   - on rhythm slash represents muted slash
 o   - on rhythm slash represents single note slash

Misc Legend
-----------
 |  - bar
||  - double bar
||o - repeat start
o|| - repeat end
*|  - double bar (ending)
 :  - bar (freetime)
 $  - Segno
 &  - Coda
Tempo markers -  = BPM(8/16=s8/s16), where s8 = swing 8ths, s16 = swing 16ths
Suggest correction
comments
print report bad tab
22 comments total. Showing first comments.
+1 reply
SabBloodySab1 50 wrote on March 23 2005, 12:00 am

I think this is the best Tabbed out Holy Wars song that is on the net.. Great Job..

+2 reply
buckethead101 130 wrote on April 25 2005, 12:00 am

WTF how fast is Dave Mustaine?????

0 reply
Josué 80 wrote on July 10 2005, 12:00 am

Yes, this is a really good job. and what a cool song this is

guest
You may want to rate the tab now too:
select rating
Wanna post a correction for this tab? Suggest correction