Oops, an error
Loading. Please wait.

Hook In Mouth Bass Tab

version 2
version 2

Whole song

Interactive

5,745 views 18 this week
2 commentsread comments
1 2 3 4 5
excellent!
x 5
add to favorites
launch autoscroll
font size
0
reset
guitar tuner
Tab Pro tools
  • play this tab
  • loop segment
  • change instrument
  • show fretboard
  • metronome
×
Best way to learn
"Hook In Mouth"
Autoscroll
slow
fast
+/-
esc
set tempo
stop
Contributor
#----------------------------------PLEASE NOTE---------------------------------#
#This file is the author's own work and represents their interpretation of the #
#song. You may only use this file for private study, scholarship, or research. #
#------------------------------------------------------------------------------#

HOOK IN MOUTH (Bassline)
As recorded by Megadeth

Transcribed by renegadepancake
	



Gtr I (E A D G) - 'Ellefson'

  Q=155
 4/4
  Gtr I
  E E E E E E E E   E E E E E E E E
|-----------------|-----------------|
|-----------------|-----------------|
|-----------------|-----------------|
|---6-3-5---6-5-3-|---6-3-5---6-5-3-|


   Verse I
    S S S S S S S S S S S S S S S S   S S E S S E S S E S S E
||----------------------------------|-------------------------|
||o---------------------------------|-------------------------|
||o---------------------------------|-------------------------|
||--5h6-0-0-0-0-3h5-0-0-0-0-0-0-2h3-|-0-0-0-0-0-0-0-0-0-0-0-0-|


  S S E S S E S S E S S E   S S E S S E S S E S S E  4x
|-------------------------|--------------------------||
|-------------------------|-------------------------o||
|-------------------------|-------------------------o||
|-0-0-0-0-0-0-0-0-0-0-0-0-|-0-0-0-0-0-0-0-0-0-0-0-0--||


    S S S S S S S S S S S S S S S S   S S E S S E S S E S S E  3x
||----------------------------------|--------------------------||
||o---------------------------------|-------------------------o||
||o---------------------------------|-------------------------o||
||--5h6-0-0-0-0-3h5-0-0-0-0-0-0-2h3-|-0-0-0-0-0-0-0-0-0-0-0-0--||


  S S S S S S S S S S S S S S S S   E E E E E E E E
|---------------------------------|-----------------|
|---------------------------------|-----------------|
|---------------------------------|-----------------|
|-5h6-0-0-0-0-3h5-0-0-0-0-0-0-2h3-|-0-6-3-5---6-5-3-|


   Verse II
    $
    S S E E S S E E E S S   E E E E E E E E
||------------------------|-----------------|
||o-----------------------|-----------------|
||o-----------------------|-----------------|
||--5s6-0-0-3s5-0-0-0-2s3-|-0-0-0-0-0-0-0-0-|


  S S E E S S E E E S S   E E E E E E E E    4x
|-----------------------|--------------------||
|-----------------------|-------------------o||
|-----------------------|-------------------o||
|-5s6-0-0-3s5-0-0-0-2s3-|-0-6-3-5---6-5-3----||


                             To Coda
    E E E E E E E E   E E E E E E E E
||------------------|------------------||
||o-----------------|-----------------o||
||o-----------------|-----------------o||
||----6-3-5---6-5-3-|---6-3-5---6-5-3--||


   Chorus
    S S S S S S S S S S S S S S S S   S S S S S S S S S S S S S S S S
||----------------------------------|---------------------------------|
||o---------------------------------|---------------------------------|
||o---------------------------------|---------------------------------|
||--5s6-0-0-0-0-6s7-0-0-0-0-0-0-0-0-|-7s8-0-0-0-0-8s9-0-0-0-0-0-0-0-0-|


  S S E S S E S S E S S E   S S S S S S S S S S S S S S S S  3x
|-------------------------|----------------------------------||
|-------------------------|---------------------------------o||
|-------------------------|---------------------------------o||
|-0-0-0-0-0-0-0-0-0-0-0-0-|-5h6-0-0-0-0-3h5-0-0-0-0-0-0-2h3--||


  S S S S S S S S S S S S S S S S   S S S S S S S S S S S S S S S S
|---------------------------------|-----------------------------------|
|---------------------------------|-----------------------------------|
|---------------------------------|-----------------------------------|
|-5s6-0-0-0-0-6s7-0-0-0-0-0-0-0-0-|-7s8-0-0-0-0-8s9-0-0-0-0-0-0-0-0---|


                     2/4         4/4
    E E E E E E E E   E E E S S   W          S  S S S S S S S S S S S S S S S
||------------------|-----------|----------|----------------------------------|
||o-----------------|-----------|----------|----------------------------------|
||o-7-7---7---------|-----------|----------|-8-10-8-7-5-7-5-3-5-3-2-1-2-1-----|
||------------8---7-|---3---0-0-|-1--------|------------------------------3-2-|


   Solo 1 - Young
    S S E S S E S S E S S E   S S E S S E S S E S E.
||--------------------------|------------------------|
||o-------------------------|------------------------|
||o-------------------------|------------------------|
||--0-0-0-0-0-0-0-0-0-0-0-0-|-0-0-0-0-0-0-0-0-0-0-1--|


  S S E S S E S S E S S E   S S E S S E S S E S E.
|-------------------------|----------------------------||
|-------------------------|---------------------------o||
|-------------------------|---------------------------o||
|-0-0-0-0-0-0-0-0-0-0-0-0-|-0-0-0-0-0-0-0-0-0-0-1------||


   Solo 2 - Mustaine
    S S S S S S S S S S S S S S E   S S S S S S S S S S S S S S E     4x
||--------------------------------|-----------------------------------||
||o-------------------------------|----------------------------------o||
||o-------------------------------|----------------------------------o||
||--0-0-0-0-0-0-0-0-0-0-0-0-0-0-1-|-0-0-0-0-0-0-0-0-0-0-0-0-0-0-1-----||


 Chorus
  S S E S S E S S E S S E   S S E S S E S S E S S E
|-------------------------|-------------------------|
|-------------------------|-------------------------|
|-------------------------|-------------------------|
|-3-3-3-3-3-3-3-3-3-3-3-3-|-1-1-1-1-1-1-1-1-1-1-1-1-|


  S S E S S E S S E S S E   S S E S S E S S E S S E
|-------------------------|----------------------------|
|-------------------------|----------------------------|
|-------------------------|----------------------------|
|-0-0-0-0-0-0-0-0-0-0-0-0-|-0-0-0-0-0-0-0-0-0-0-0-0----|


  S S E S S E S S E S S E   S S E S S E S S E S S E
|-------------------------|-------------------------|
|-------------------------|-------------------------|
|-------------------------|-------------------------|
|-3-3-3-3-3-3-3-3-3-3-3-3-|-1-1-1-1-1-1-3-3-3-1-1-1-|


  S S E S S E S S E S S E   E E E E E E E E
|-------------------------|-----------------|
|-------------------------|-----------------|
|-------------------------|-7---------------|
|-0-0-0-0-0-0-0-0-0-0-0-0-|---8---7---3---0-|


  S S E S S E S S E S S E   S S E S S E S S E S S E
|-------------------------|-------------------------|
|-------------------------|-------------------------|
|-------------------------|-------------------------|
|-3-3-3-3-3-3-3-3-3-3-3-3-|-1-1-1-1-1-1-1-1-1-1-1-1-|


  S S E S S E S S E S S E   S S E S S E S S E S S E
|-------------------------|----------------------------|
|-------------------------|----------------------------|
|-------------------------|----------------------------|
|-0-0-0-0-0-0-0-0-0-0-0-0-|-0-0-0-0-0-0-0-0-0-0-0-0----|


  S S E S S E S S E S S E   S S E S S E S S E S S E
|-------------------------|--------------------------||
|-------------------------|-------------------------o||
|-------------------------|-------------------------o||
|-3-3-3-3-3-3-3-3-3-3-3-3-|-1-1-1-1-1-1-3-3-3-1-1-1--||


                   6/4                  4/4
  E E E E E E E E   E E E S S W          S  S S S S S S S S S S S S S S S
|-----------------|--------------------|------------------------------------|
|-----------------|--------------------|------------------------------------|
|-7-7---7---------|--------------------|-8-10-8-7-5-7-5-3-5-3-2-1-2-1-------|
|-----------8---7-|---3---0-0-1--------|------------------------------3-2---|


   Verse III
    S S S S S S S S S S S S S S S S   S S E S S E S S E S S E  3x
||----------------------------------|--------------------------||
||o---------------------------------|-------------------------o||
||o---------------------------------|-------------------------o||
||--5h6-0-0-0-0-3h5-0-0-0-0-0-0-2h3-|-0-0-0-0-0-0-0-0-0-0-0-0--||


                                      D.S. al Coda    &
                                                     2/4
  S S S S S S S S S S S S S S S S   E E E E E E E E   H
|---------------------------------|-----------------|------*|
|---------------------------------|-----------------|------*|
|---------------------------------|-----------------|------*|
|-5h6-0-0-0-0-3h5-0-0-0-0-0-0-2h3-|-0-6-3-5---6-5-3-|-0----*|



Duration Legend
---------------
W - whole; H - half; Q - quarter; E - 8th; S - 16th; T - 32nd; X - 64th; a - acciaccatura
+ - note tied to previous; . - note dotted; .. - note double dotted
Uncapitalized letters represent notes that are staccato (1/2 duration)
Irregular groupings are notated above the duration line
Duration letters will always appear directly above the note/fret number it represents the
duration for.  Duration letters with no fret number below them represent rests.  Multi-
bar rests are notated in the form Wxn, where n is the number of bars to rest for.  Low
melody durations appear below the staff

Tablature Legend
----------------
 h   - hammer-on
 p   - pull-off
 b   - bend
 pb  - pre-bend
 r   - bend release (if no number after the r, then release immediately)
 /\  - slide into or out of (from/to "nowhere")
 s   - legato slide
 S   - shift slide
 - natural harmonic
[n]  - artificial harmonic
n(n) - tapped harmonic
 ~   - vibrato
 tr  - trill
 T   - tap
 TP  - trem. picking
 PM  - palm muting
\n/  - tremolo bar dip; n = amount to dip
 \n  - tremolo bar down
 n/  - tremolo bar up
/n\  - tremolo bar inverted dip
 =   - hold bend; also acts as connecting device for hammers/pulls
 <> - volume swell (louder/softer)
 x   - on rhythm slash represents muted slash
 o   - on rhythm slash represents single note slash

Misc Legend
-----------
 |  - bar
||  - double bar
||o - repeat start
o|| - repeat end
*|  - double bar (ending)
 :  - bar (freetime)
 $  - Segno
 &  - Coda
Tempo markers -  = BPM(8/16=s8/s16), where s8 = swing 8ths, s16 = swing 16ths

comments
print report bad tab
2 comments total.
0 reply
snoro113 wrote on May 15 2013, 01:15 pm

nice! even the fill sounds great!

0 reply
88Reaper88 wrote on January 26 2015, 07:17 pm

Great tab, one minor correction though; During the third bar of the chorus he plays the 6-3-5 6-5-3 riff again.

Awesome tab!

I want to post or [tab]
guest
You may want to rate the tab now too:
select rating
Please do not post tabs as comments. Select "correction" instead!