Oops, an error
Loading. Please wait.

I Know Jack Tab

version 2
version 2

Whole song

Interactive

1,913 views 3 this week
1 commentread comment
1 2 3 4 5
excellent!
x 3
add to favorites
launch autoscroll
font size
0
reset
how to read this tab
guitar tuner
Autoscroll
slow
fast
+/-
esc
set tempo
stop
Help us to improve Ultimate-Guitar.com Take our survey!
×
Contributor
Andrew Zara 3,565
Band- Megadeth
Song- I Know Jack

Tuning: Standard

Intro
                          x4
e|-5-3-0-------3-0-0-------|
B|-------5-3-5-------5-3-0-|
G|-------------------------|
D|-------------------------|
A|-------------------------|
E|-------------------------|

-----------------------------------------------------

Riff 1

Guitar 1                  x4
e|-5-3-0-------3-0-0-------|
B|-------5-3-5-------5-3-0-|
G|-------------------------|
D|-------------------------|
A|-------------------------|
E|-------------------------|

e|-5-3-0-------5-3-0-------|
B|-------0-3-5-------0-3-5-|
G|-------------------------|
D|-------------------------|
A|-------------------------|
E|-------------------------|

e|-7-5-0-------7-5-0-------|
B|-------0-5-7-------0-5-7-|
G|-------------------------|
D|-------------------------|
A|-------------------------|
E|-------------------------|
                          x2
e|-5-3-0-------3-0-0-------|
B|-------5-3-5-------5-3-0-|
G|-------------------------|
D|-------------------------|
A|-------------------------|
E|-------------------------|


Guitar 2                          x2
e|---------------------------------|
B|---------------------------------|
G|---------------------------------|
D|---------------------------------|
A|-2-2-------------2-2-------------|
E|-0-0--000000-2-3-0-0--000000-3-2-|
   * *  ****** * * * *  ****** * *
e|--------------------------------|
B|--------------------------------|
G|--------------------------------|
D|--------------------------------|
A|-5--5-----------4--4------------|
E|-3--3--33333333-2--2--22-111111-|
   *  *  ******** *  *  ** ******
e|---------------------------------|
B|---------------------------------|
G|---------------------------------|
D|---------------------------------|
A|-2-2-------------2-2-------------|
E|-0-0--000000-2-3-0-0--000000-3-2-|
   * *  ****** * * * *  ****** * *

----------------------------------------------------

Riff 2

Guitar 1                  x4
e|-5-3-0-------3-0-0-------|
B|-------5-3-0-------5-3-0-|
G|-------------------------|
D|-------------------------|
A|-------------------------|
E|-------------------------|

e|-5-3-0-------5-3-0-------|
B|-------0-3-5-------0-3-5-|
G|-------------------------|
D|-------------------------|
A|-------------------------|
E|-------------------------|

e|-7-5-0-------7-5-0-------|
B|-------0-5-7-------0-5-7-|
G|-------------------------|
D|-------------------------|
A|-------------------------|
E|-------------------------|
                          x5
e|-5-3-0-------3-0-0-------|------|
B|-------5-3-0-------5-3-0-|--5\--|
G|-------------------------|------|
D|-------------------------|------|
A|-------------------------|------|
E|-------------------------|------|


Guitar 2                          x2
e|---------------------------------|
B|---------------------------------|
G|---------------------------------|
D|---------------------------------|
A|-2-2-------------2-2-------------|
E|-0-0--000000-2-3-0-0--000000-3-2-|
   * *  ****** * * * *  ****** * *
e|--------------------------------|
B|--------------------------------|
G|--------------------------------|
D|--------------------------------|
A|-5--5-----------4--4------------|
E|-3--3--33333333-2--2--22-111111-|
   *  *  ******** *  *  ** ******
                                  x2
e|---------------------------------|
B|---------------------------------|
G|---------------------------------|
D|---------------------------------|
A|-2-2-------------2-2-------------|
E|-0-0--000000-2-3-0-0--000000-3-2-|
   * *  ****** * * * *  ****** * *

e|-----------------------|
B|-----------------------|
G|-----------------------|
D|-------------------9\--|
A|-2--2--------------7\--|
E|-0--0--000000-2-3------|
   *  *  ****** * *


Guitar 3                   x4
e|-8-7-0-5-3-0-7-0-0--------|
B|-------------------10-8-7-|
G|--------------------------|
D|--------------------------|
A|--------------------------|
E|--------------------------|

e|-8-7-0-------8-7-0-------|
B|-------0-7-8-------0-7-8-|
G|-------------------------|
D|-------------------------|
A|-------------------------|
E|-------------------------|

e|-10-8-0--------10-8-0--------|
B|--------0-8-10--------0-8-10-|
G|-----------------------------|
D|-----------------------------|
A|-----------------------------|
E|-----------------------------|
                           x5
e|-8-7-0-5-3-0-7-0-0--------|------|
B|-------------------10-8-7-|--5\--|
G|--------------------------|------|
D|--------------------------|------|
A|--------------------------|------|
E|--------------------------|------|



Notation:

10^        = bend a quarter step.
10b11      = bend a half step.
10b12      = bend a full step.
10b12r10   = bend and release.
[10]12     = pre-bend.
[10]12r10  = pre-bend and release.
{14}       = pick the 14th fret while holding the most
             previous bend.
<17>       = touch the string above the 17th fret while
             previous note(s) is(are) still ringing.

10b13*     = tremolo bar bend, from the 10th fret to the 13th fret.
7d4*       = tremolo bar dive, from the 7th fret to the 4th fret.
12~*       = tremolo bar vibrato.

x   =  mute with fret-hand
*   =  palm mute
X\\ =  pick slide
h   =  hammer-on
p   =  pull-off
~   =  vibrato
t   =  finger tap
/   =  slide up
\   =  slide down
h.  =  natural harmonics
a   =  artificial harmonics
(9) =  ghost note
tm  =  trem picking
tr  =  trill
comments
We did not receive enough feedback on this tab! Please rate:
print report bad tab
1 2 3 4 5
1 comment total.
0 reply
Doomification17 15 wrote on September 14 2015, 03:08 pm

Gr8 tab mate. Way too short though, but hey that's not your fault ;)

I want to post or [tab]
guest
You may want to rate the tab now too:
select rating
Please do not post tabs as comments. Select "correction" instead!