Oops, an error
Loading. Please wait.

Ill Be There Tab

version 1
version 1

Whole song

Interactive

9,934 views 15 this week
no commentswrite comment
1 2 3 4 5
excellent!
x 2
add to favorites
launch autoscroll
font size
0
reset
how to read this tab
guitar tuner
Tab Pro tools
  • play this tab
  • loop segment
  • change instrument
  • show fretboard
  • metronome
Autoscroll
slow
fast
+/-
esc
set tempo
stop
                        "I´ll Be There"
                              BY
                           MEGADETH 

Here I tab down one of my favorite songs
It's realy fun to play. Not fast but many
small melodies and cool riffs. So be shore
to listen closely to put all parts were
it belongs.

If you have any questions or comments send it to: 
"megamustain@hotmail.com"

-----------------------------------------------------------------------------
Explanations:  h - hammer on
               b - bend
-----------------------------------------------------------------------------     

 Tune Normal A-flat....

 Intro:
 -----

|---------------------------  -------------------------------------------
|-7-7-7-7-7-7-7-7-7-7-7-7-7-  -------------------------------------------
|-7-7-7-7-7-7-7-7-7-7-7-7-7-  -------------------------------------------
|-7-7-7-7-7-7-7-7-7-7-7-7-7-  -----5/7-----5/7---------------5/7-----5/7-
|-5-5-5-5-5-5-5-5-5-5-5-5-5-  --5-------5-------5--3h-5---5-------5------
|---------------------------  -------------------------------------------

 ----------||
 ----------||
 ----------||
 ----------||
 -5--3h-5--||
 ----------||

 

 Verse 1
 -------

|-Guitar-One-|
|---------------------------------------------------------------------------
|-------7-----7------------7--5--7------------6--5--6------------6--5--6----
|----7-----9-----7------5-----------5------3-----------3------3-----------5-
|-0------------------0------------------0------------------0----------------
|---------------------------------------------------------------------------
|---------------------------------------------------------------------------

 ----------||
 -6--5--6--||
 ----------||
 ----------||
 ----------||
 ----------|| Play x2


|-Guitar-Two-|--Volume-Sweel-|
|---------------------------||
|-7-7-7-7-7-7-7-7-7-7-7-7-7-||
|-7-7-7-7-7-7-7-7-7-7-7-7-7-||
|-7-7-7-7-7-7-7-7-7-7-7-7-7-||
|-5-5-5-5-5-5-5-5-5-5-5-5-5-||
|---------------------------|| Play x2



 Last Time

|-Guitar-One-|
|--------------------------------------------------------------------------
|-------7-----7------------7--5--7------------6--5--6-----------6--5--6----
|----7-----9-----7------5-----------5------3-----------3-----3-----------5-
|-0------------------0------------------0-----------------0----------------
|--------------------------------------------------------------------------
|--------------------------------------------------------------------------

 ----------||
 -6--5--6--||
 ----------||
 ----------||
 ----------||
 ----------||


|-Guitar-Two-|
|----------------  ---------||
|-7-7-7---7-7-7--  --5---3--||
|-7-7-7---7-7-7--  --5---3--||
|-5-5-5---5-5-5--  --3---1--||
|----------------  ---------||
|----------------  ---------||


 Chorus 1
 --------


|-Both-Guitars-|
|-------------------------------(0)-------------------------
|-------------------------------(0)-------------------------
|-2-----------------------------(2)-------------------------
|-2----------------------------3----------------------------
|-0---2--3--5~--3--2-----2-----3---2--3--5~--3--2-----2-----
|---------------------3-----3--1-------------------3-----3--


 -------------------------------(0)------------------------(0)-----||                             
 -------------------------------(0)------------------------(0)-----||     
 -0-----------------------------(2)------------------------(2)-----||     
 -0----------------------------3--------------------------3-----2--||     
 -2---2--3--5~--3--2-----2-----3---2--3/7--5-----5--------3-----2--||     
 ---------------------3-----3--1--------------8-----8--7--1-----0--||  

 
 Bridge
 ------
  
|-----------------------------(12)--||
|-----------------------------------||
|-/19--14--/17--12--/14-------------||
|-----------------------------------||
|-----------------------------------||
|-----------------------------------||


 Verse 2
 -------

|-Guitar-One-|
|-------------------------------------------------------------
|-------7-----7-----7-----7-----------7--5--7-----7--5--7-----
|----7-----9-----7-----9-----7-----5-----------5-----------5--
|-0-----------------------------0-----------------------------
|-------------------------------------------------------------
|-------------------------------------------------------------

 -------------------------------------------------------------||
 -------6--5--6-----6--5--6-----------6--5--6-----6--5--6-----||
 ----3-----------3-----------5-----3-----------3-----------5--||
 -0-----------------------------0-----------------------------||
 -------------------------------------------------------------||
 -------------------------------------------------------------|| Play x2


|-Guitar-Two-|             |---Volume-Sweel---|
|---------------------     --------------------    --17--15--13--12---||
|---------------------     --7-7-7-7---7-7-7-7-    -------------------||
|--14--12--10--9--11--     --7-7-7-7---7-7-7-7-    -------------------||
|---------------------     --7-7-7-7---7-7-7-7-    -------------------||
|---------------------     --5-5-5-5---5-5-5-5-    -------------------||
|---------------------     --------------------    -------------------||



 At End

|-Both-Guitars-|
|----------||
|--5---3---||
|--5---3---||
|--3---1---||
|----------||
|----------||



 Chorus 2
 --------


|-Both-Guitars-|
|-------------------------------(0)-------------------------
|-------------------------------(0)-------------------------
|-2-----------------------------(2)-------------------------
|-2----------------------------3----------------------------
|-0---2--3--5~--3--2-----2-----3---2--3--5~--3--2-----2-----
|---------------------3-----3--1-------------------3-----3--


 -------------------------------(0)------------------------(0)-------------||                             
 -------------------------------(0)------------------------(0)-------------||     
 -0-----------------------------(2)------------------------(2)-------------||     
 -0----------------------------3--------------------------3-----2---3---2--||     
 -2---2--3--5~--3--2-----2-----3---2--3/7--5-----5--------3-----2---3---2--||     
 ---------------------3-----3--1--------------8-----8--7--1-----0---1---0--||


 Bridge 2
 --------

|--Guitar--One-|--Let-Ring-->
|---------------------------------||
|---------------------------------||
|--7--------------7------------7--||
|--7--------------7------------7--||
|--5--------------5------------5--||
|---------------------------------||


|--Guitar--Two-|
|----------------------||
|----------------------||
|--19-----16---19--18--||
|----------------------||
|----------------------||
|----------------------||



 Verse/Bridge 3
 --------------

|-Both-Guitars-|
|--------------------------------------------------------
|-7---7--7--7---7---7--7--7---7---7--7--7---7---7--7--7--
|-7---7--7--7---7---7--7--7---5---5--5--5---5---5--5--5--
|-0-------------0-------------0-------------0------------
|--------------------------------------------------------
|--------------------------------------------------------

 --6---6--6--6---6---6--6--6---6---6--6--6---6---6--6--6--||
 --6---6--6--6---6---6--6--6---6---6--6--6---6---6--6--6--||
 --3---3--3--3---3---3--3--3---3---3--3--3---3---3--3--3--||
 --0-------------0-------------0-------------0------------||
 ---------------------------------------------------------||
 ---------------------------------------------------------||


 Outro
 ----- 

|-Both-Guitars-|...oohooo...I´ll be there...
|---------------------------------||
|---------------------------------||
|--7---7---7---7---3---3---5---7--||
|--7---7---7---7---3---3---5---7--||
|--5---5---5---5---1---1---3---5--||
|---------------------------------|| Repeat And Fade Out...
comments
We did not receive enough feedback on this tab! Please rate:
print report bad tab
1 2 3 4 5
I want to post or [tab]
guest
You may want to rate the tab now too:
select rating
Please do not post tabs as comments. Select "correction" instead!