Oops, an error
Loading. Please wait.

In My Darkest Hour Bass Tab

version 2
version 2

Whole song

20,232 views 15 this week
4 commentsread comments
1 2 3 4 5
accurate
x 9
add to favorites
launch autoscroll
font size
0
reset
guitar tuner
Autoscroll
slow
fast
+/-
esc
set tempo
stop
Help us to improve Ultimate-Guitar.com Take our survey!
×
Contributor
-------------------------------------------------------------------------------
			In My Darkest Hour - Megadeth
-------------------------------------------------------------------------------


This is a bass tab. I've accidentally submitted it as a guitar tab, so, if you're anyone 
can don anything about that, thanks.
 -Intro 1:
G|-----------------------------------------|
D|------------0-4-0-2-0---------------0-4-0|
A|----------------------2-0-------0-2------|
E|0-----0-0-0---------------3-2-3----------|

 -Intro 2:
G|----------------------------------------|
D|-----------------2-1-0------------------|
A|--2-3--3-4--4-3--------3---2-3--3-4--4-3|
E|0------------------------0--------------|

G|--------------------------------------------------------------------|
D|-2-1-0-----2-1-0-----2-1-0-----2-1-0-----2-1-0----------------------|
A|-------3---------3---------3---------3---------3--------------------|
E|---------0---------1---------0---------1--------0-0000-0000-0000-000|

 -Intro 3:
G|------------0---------------------|
D|-------------4-3-2-1-0------------|
A|-----------------------4-3-2-1-0--|
E|0-000-3-333----------------------4|

-Verse 1:
G|-------------------------------------------|
D|-------------------------------------------|
A|----------23-3333-32------------23-3333-32-|
E|0-0000-00-----------3-0-0000-00-----------3|

G|-------------------------------------------|
D|---------210-0000-0-21---------------------|
A|----------------------2-2222-2--------2-2--|
E|0-0000-0-----------------------0-23-35---32|

-Post Verse 1:
G|-------------------------------------------|
D|-------------------------------------------|
A|----------23-3333-32------------23-3333-32-|
E|0-0000-00-----------3-0-0000-00-----------3|

G|-----------------------------------------------|
D|-----------------------------------------------|
A|0-000-0012-2222-222-0-0000-000-555555555555-2--|
E|---------------------------------------------53|

 -Verse 2:
G|-------------------------------------------|
D|-------------------------------------------|
A|----------23-3333-33-34-4444-44-43-3333-32-|
E|0-0000-00---------------------------------3|

 -'Things will be better...'
G|-----------------------------------|-----|
D|-----------------------------------|-----|
A|------------5-----------------5----|-----|
E|0-000-3-5-6---6-5-0-000-3-5-6---6-5|6-5-3|

G|--------------------------------------------------------------|
D|--------------------------------------------------------------|
A|--23-3333-333------------23-33333333---23-33333333-34-44444444|
E|0-------------0-00000000-------------0------------------------|
(You might chug away at the fifth on A at the end, but it might be guitar only)

G|-----|
D|-----|
A|5-2-0|
E|-----|

 -'I walk...'
G|-----------|
D|-----------|
A|-----------|
E|00-11-22-33|

G|-------------------------------|
D|-------------------------------|
A|-------------------------------|
E|0-00000-1-11111-2-22222-3-33333|

 -'Time has a way of taking time'
(First time)
G|-----------------|----------------|
D|2---------------2|2---------------|
A|--23-3200-32-235-|-533-32-0-32-20-|
E|-----------------|-------3-------3|

(Second, third and fourth bars)
G|-----------------|----------------|
D|----------------2|2---------------|
A|--23-32-0-32-235-|-533-32-0-32-20-|
E|0------3---------|-------3-------3|

 -Solo
G|-----------------------------|
D|------------------------33-22|
A|0-00000-1-11111-3-33333------|
E|-----------------------------|

 -After solo
G|-------------------------------|
D|-------------------------------|
A|-------------------------------|
E|0-00000-1-11111-2-22222-3-33333|

(Last time )
G|---------------------------------|
D|---------------------------------|
A|----------------1-11111-2-22-2---|
E|4-44444-5-55555---------------320|
                        Very fast^^^

 -Ending
G|-----------------------------------------|
D|------------0-4-0-2-0---------------0-4-0|
A|----------------------2-0-------0-2------|
E|0-----0-0-0---------------3-2-3----------|

END


| /  slide up
| \  slide down
| h  hammer-on
| p  pull-off
| ~  vibrato
| +  harmonic
| x  Mute note
===============================================================================
comments
print report bad tab
4 comments total. Showing first comments.
0 reply
shredder_666 30 wrote on December 21 2006, 09:57 am

good.

0 reply
-Wonder-boy- 67 wrote on January 13 2007, 04:03 pm

Another brilliant tab by bass boy 666, keep 'em coming

-2 reply
Danmalone72 10 wrote on March 24 2007, 06:25 pm

Wow it almost makes me feel like playing bass........actually no it doesn't...

I want to post or [tab]
guest
You may want to rate the tab now too:
select rating
Please do not post tabs as comments. Select "correction" instead!