Oops, an error
Loading. Please wait.

In My Darkest Hour Tab

version 2
version 2
171,588 views 66 this week
24 commentsread comments
1 2 3 4 5
x 64
add to favorites
launch autoscroll
font size
0
reset
how to read this tab
guitar tuner
Autoscroll
slow
fast
+/-
esc
set tempo
stop
Help us to improve Ultimate-Guitar.com Take our survey!
×
Megadeth - In My Darkest Hour

 Guitar 1 - Rhythm electric w/distortion
 Guitar 2 - Rhythm electric w/distortion
 Guitar 3 - Acoustic
 Guitar 4 - Lead rhythm electric w/distortion (lead rhythm basicly means Dave Mustaine.)
 Guitar 5 - Lead electric w/distortion & (So I guess we'll say this is Jeff Young.)

bpm = 110

[Intro]

  Guitar 3
e|-----------0-----|---------0-------|-----------------|-----------------|
B|---------0---0---|-------0---0-----|-----------------|-----------------|
G|-------7-------7-|-----7-----------|------rest-------|------rest-------|
D|-----5-----------|---5-------------|-----------------|-----------------|
A|---9-------------|-9---------------|-----------------|-----------------|
E|-0---------------|-----------------|-----------------|-----------------|
|                                                                       |                       
|Guitar 1                                                               |                       
-----------0-----|---------0-------|-----------------|-----------------|
---------0---0---|-------0---0-----|-----------------|-----------------|
-------7-------7-|-----7-----------|-----------------|-----------------| x2
-----5-----------|---5-------------|-2---------------|-(2)-------------|
---9-------------|-9---------------|-2---------------|-(2)-------------|
-0---------------|-------------0-0-|-0---------------|-(0)-------------|
|pm......           ...         ...                                     |      
                 
 |Guitar 2                                                               |                       
e|-----------------|-----------------|-----------------|-----------------|
B|-----------------|-----------------|-----------------|-----------------|
G|-----------------|-----------------|-----------------|-----------------|
D|-9---------------|-(9)-------------|---0-4-0-2-0-----|-----------0-4-0-|
A|-7---------------|-(7)-------------|-2-----------2-0-|-------0-2-------|
E|-0---------------|-(0)---------0-0-|-----------------|-3-2-3-----------|
                              pm...


e|-----------0-----|---------5-------|-----------9------|-----------------|
B|---------0---0---|-----------5-----|-------------10---|-----------------|
G|-------7---------|-------7-----7---|---------9------9-|-------7---------|
D|-----5-----------|-5---5---------5-|------11----------|-5---5-----------|
A|---9-----------9-|---9-------------|---12-------------|---9-------------|
E|-0---------------|-----------------|-9----------------|-----------------|
|                                                                        |    
                   
 |                                                                        |                        
e|-----------0-----|---------5-------|-----------9------|-----------------|
B|---------0---0---|-----------5-----|-------------10---|-----------------|
G|-------7---------|-------7-----7---|---------9------9-|-------7---------| x2
D|-----5-----------|-5---5---------5-|------11----------|-5---5---2-0-----|
A|---9-----------9-|---9-------------|---12-------------|---9---------3-2-|
E|-0---------------|-----------------|-9----------------|-----------------|
|pm......       ...........           ..........         .......         |   
                    
 |                                                                        |                        
e|-----------------|-----------------|------------------|-----------------|
B|-----------------|-----------------|------------------|-----------------|
G|-----------------|-----------------|------------------|-----------------|
D|-9-------------4-|-5-------------5-|-7--------------7-|-5-------2-0-----|
A|-7-------------2-|-3-------------3-|-4--------------4-|-3-----------3-2-|
E|-0---------------|-----------------|------------------|-----------------|
             pm..              pm..                pm..

  Guitars 1 & 2
e|-----------------|-----------------|-----------------|-----------------|
B|-----------------|-----------------|-----------------|-----------------|
G|-----------------|-----------------|-----------------|-----------------|
D|-2-------2-0-----|-3-------2-0-----|-2-------2-0-----|-3-------2-0-----|
A|-2-----------3-2-|-3-----------3-2-|-2-----------3-2-|-3-----------3-2-|
E|-0---------------|-1---------------|-0---------------|-1---------------|


[Pre-verse]

e|-----------------|-----------------|-----------------|-----------------|
B|-----------------|-----------------|-----------------|-----------------|
G|-----------------|-----------------|-----------------|-----------------|
D|-2-------2-------|-2-------2-------|-2-------2-------|-2-------2-------|
A|-2-------2-------|-2-------2-------|-2-------2-------|-2-------2-------|
E|-0-0-0-0-0-0-0-0-|-0-0-0-0-0-0-0-0-|-0-0-0-0-0-0-0-0-|-0-0-0-0-0-0-0-0-|
  pm.....   .....     .....   .....     .....   .....     .....   .....

  Guitars 1 & 2*
e|-----------------|-------------------------|
B|-----------------|-8-7-6-5-----------------|
G|-----------------|---------8-7-6-5---------|
D|-2-------5-------|-----------------9-8-7-6-|
A|-2-------5-------|-------------------------|
E|-0-0-0-0-3-3-3-3-|-------------------------|
| pm.....   .....                           | x 4
|                                           |

e|-----------------|-------------------------|
B|-----------------|-------8-7-6-5-----------|
G|-----------------|---------------8-7-6-5---|
D|-2-------5-------|-----------------------9-|
A|-2-------5-------|-------------------------|
E|-0-0-0-0-3-3-3-3-|-------------------------|
  pm.....   .....

*on this section, both guitars play the top passage, but the tabbed bottom passage shows
the notes caused by the delay affect. So, guitar 2 can play the bottom passage instead.


[Verse]

  Guitars 1 & 2
e|-----------------|-----------------|-----------------|-----------------|
B|-----------------|-----------------|-----------------|-----------------|
G|-----------------|-----------------|-----------------|-----------------|
D|-2-------2-----4-|-5-------5-----0-|-2-------2-----4-|-5-------5-----0-|
A|-2-------2-----2-|-3-------3---2---|-2-------2-----2-|-3-------3---2---|
E|-0-0-0-0-0-0-0---|---0-0-0---0-----|-0-0-0-0-0-0-0---|---0-0-0---0-----|
  pm.....   ...       .....   ..        .....   ...       .....   ..


e|-----------------|-----------------|-----------------|-----------------|
B|-----------------|-----------------|-----------------|-----------------|
G|-----------------|-----------------|-----------------|-----------------|
D|-2-------2-----8-|-7-------7---9---|-4-------4-------|---------4-------|
A|-2-------2---7-6-|-5-------5---7---|-2-------2-------|-5---0-1-2-------|
E|-0-0-0-0-0-0-----|---0-0-0---0-----|---0-0-0---0-0-2-|-3-0-------0-3-2-|
  pm.....   ..        .....   ..        .....   .....     ......  .....


[Pre-Chorus]

  Guitars 1 & 2
e|-----------------|-------------------------|
B|-----------------|-------------------------|
G|-----------------|-------------------------| x2
D|-2-------2-----4-|-5-------5---4-2h4p2p0---|
A|-2-------2-----2-|-3-----3---3-----------4-|
E|-0-0-0-0-0-0-0---|---0-0-------------------|
  pm.....   ...       ......  ..


e|-----------------|-----------------------|-----------------------|
B|-----------------|-----------------------|-----------------------|
G|-2-------2-------|---------4---2-0h2p0---|-2-------4---2-0h2p0---|
D|-2-------2-------|-4-------------------4-|-2-------------------4-|
A|-0-0-0-0-0-0-3-0-|-2-0-0-2---0-----------|-0-0-0-0---0-----------|
E|-----------------|-----------------------|-----------------------|
  pm.....   .....     .....   ..              .....   ..


e|-------------------------|-------------------------|
B|-------------------------|-------------------------|
G|-------------------------|-------------------------|
D|-------------------------|-------------7-----------|
A|-5-5-5-5-5-5-5-5-5-5-5-5-|-5-5-5-5-5-5-5---8---7---|
E|-------------------------|-----------------6---5---|
pm.....................................


[Chorus]

  Guitars 1 & 2
e|-----------------|-----------------|-----------------|-----------------|
B|-----------------|-----------------|-----------------|-----------------|
G|-----------------|-----------------|-----------------|-----------------|
D|-2-------2-----4-|-5-------5-----5-|-7-------7-----7-|-5-------5-------|
A|-2-------2-----2-|-3-------3-----3-|-4-------4-----4-|-3-------3-------|
E|-0-0-0-0-0-0-0---|---0-0-0---0-0---|---0-0-0---0-0---|---0-0-0---0-0-0-|
  pm.....   ...       .....   ...       .....   ...       .....   .....


e|-----------------|-----------------|-----------------|-----------------|
B|-----------------|-----------------|-----------------|-----------------|
G|-----------------|-----------------|-----------------|-----------------|
D|-2-------2-----4-|-5-------5-----5-|-7-------7-----7-|-5-------5-----0-|
A|-2-------2-----2-|-3-------3-----3-|-4-------4-----4-|-3-------3---2---|
E|-0-0-0-0-0-0-0---|---0-0-0---0-0---|---0-0-0---0-0---|---0-0-0---0-----|
  pm.....   ...       .....   ...       .....   ...       .....   ..


[Interlude]

  Guitars 1 & 2
e|---------------------------------|---------------------------|
B|---------------------------------|---------------------------|
G|---------------------------------|---------------------------|
D|-----------------0---------------|-------0-----3----2--------|
A|-------------0-1---1-0-----------|---0-1---1-0-1----0----5---|
E|-0---0-0-0-3-----------0---0-0-0-|-3---------------------3---|
pm.........             .........           


[Verse]

  Guitar 4
e|-----------------|-----------------|-----------------|-----------------|
B|-----------------|-----------------|-----------------|-----------------|
G|-------rest------|-------rest------|-------rest------|-----------------|
D|-----------------|-----------------|-----------------|-------------0-2-|
A|-----------------|-----------------|-----------------|-----------------|
E|-----------------|-----------------|-----------------|-----------------|
|                                                                       |

 |Guitars 1 & 2                                                          |
e|-----------------|-----------------|-----------------|-----------------|
B|-----------------|-----------------|-----------------|-----------------|
G|-----------------|-----------------|-----------------|-----------------|
D|-2-------2-----4-|-5-------5-----5-|-7-------7-----7-|-5-------5-------|
A|-2-------2-----2-|-3-------3-----3-|-4-------4-----4-|-3-------3-------|
E|-0-0-0-0-0-0-0---|---0-0-0---0-0---|---0-0-0---0-0---|---0-0-0---0-0-0-|
  pm.....   ...       .....   ...       .....   ...       .....   .....


e|-------------------------|-------------------------|
B|-------------------------|-------------------------|
G|-------------------------|-------------------------|
D|-------2-0-2-------2-0-2-|-------2-0-2-------2-0-2-|
A|-2-----------2-----------|-3-----------3-----------|
E|---3-0---------3-0-------|---3-0---------3-0-------|
|                         |                         |

 |                         |                         |
e|-------------------------|-------------------------|
B|-------------------------|-------------------------|
G|-------------------------|-------------------------|
D|-2-----------2--------4--|-5-----------5--------5--|
A|-2-----------2--------2--|-3-----------3--------3--|
E|-0--0--0--0--0--0--0-----|----0--0--0-----0--0-----|
   pm.......     ....          .......     ....        
                                                        x2

e|-------------------------|-------------------------|
B|-------------------------|-------------------------|
G|-------------------------|-------------------------|
D|-------2-0-2-------2-0-2-|-------2-0-2-------2-0-2-|
A|-4-----------4-----------|-3-----------3-----------|
E|---3-0---------3-0-------|---3-0---------3-0-------|
|                         |                         | 

e|-------------------------|-------------------------|
B|-------------------------|-------------------------|
G|-------------------------|-------------------------|
D|-7-----------7--------7--|-5-----------5-----------|
A|-4-----------4--------4--|-3-----------3-----------|
E|----0--0--0-----0--0-----|----0--0--0----0--0--0---|
   pm.......     ....          .......    .......


[Breakdown]

  Guitars 1 & 2
e|-----------------------|---------------------------|
B|-----------------------|---------------------------|
G|-----------------------|---------------------------|
D|-2---------------(2)-4-|-5---------5---4-2h4p2p0---|
A|-2---------------(2)-2-|-3-------3---3-----------4-|
E|-0---------------(0)---|---------------------------|
                                pm..  ..


e|-----------------------|---------------------------|
B|-----------------------|---------------------------|
G|-----------------------|---------------------------|
D|-2-------------------4-|-5---------5---4-2h4p2p0---|
A|-2-------------------2-|-3-------3---3-----------4-|
E|-0---0-0-0-0-0-0-0-0---|-----0-0-------------------|
    pm...............         ......  ..


e|-----------------------|---------------------------|
B|-----------------------|---------------------------|
G|-----------------------|---------------------------|
D|-2---------------(2)-4-|-5---------5---4-2h4p2p0---|
A|-2---------------(2)-2-|-3-------3---3-----------4-|
E|-0---------------(0)---|---------------------------|
                                pm..  ..

e|-----------------------|-------------------------|
B|-----------------------|-------------------------|
G|-----------------------|-------------------------|
D|-7---------------(7)---|-------------------------|
A|-4---------------(4)-5-|-5-5-5-5-5-5-5-5-5-5-5-5-|
E|-----------------------|-------------------------|
                    pm...........................


e|-----------------------|                            
B|-----------------------|                            
G|-----------------------|
D|-------------7---------|
A|-5-5-5-5-5-5-5---8---7-|
E|-----------------6---5-|
pm...........

bpm = 210


[Breakdown]

  Guitar 4
e|-------------------------|-------------------------|-------------------------|
B|-------------------------|-------------------------|-------------------------|
G|-----------0h2p1p0-------|-----------0h2p1p0-------|-----------0h2p1p0-------|
D|-----0h1h2---------2p1p0-|-----0h1h2---------2p1p0-|-----0h1h2---------2p1p0-|
A|-------------------------|-------------------------|-------------------------|
E|-------------------------|-------------------------|-------------------------|
|                                                                             |

 |Guitars 1 & 2                                                                |
e|-------------------------|-------------------------|-------------------------|
B|-------------------------|-------------------------|-------------------------|
G|-------------------------|-------------------------|-------------------------|
D|-2-2---------------------|-3-3---------------------|-4-4---------------------|
A|-2-2---------------------|-3-3---------------------|-4-4---------------------|
E|-0-0---------------------|-1-1---------------------|-2-2---------------------|


e|-------------------------|-------------------------|-------------------------|
B|-------------------------|-------------------------|-------------------------|
G|-----------0h2p1p0-------|-----------0h2p1p0-------|-----------0h2p1p0-------|
D|-----0h1h2---------2p1p0-|-----0h1h2---------2p1p0-|-----0h1h2---------2p1p0-|
A|-------------------------|-------------------------|-------------------------|
E|-------------------------|-------------------------|-------------------------|
|                                                                             |

 |                                                                             |
e|-------------------------|-------------------------|-------------------------|
B|-------------------------|-------------------------|-------------------------|
G|-------------------------|-------------------------|-------------------------|
D|-5-5---------------------|-2-2---------------------|-3-3---------------------|
A|-5-5---------------------|-2-2---------------------|-3-3---------------------|
E|-3-3---------------------|-0-0---------------------|-1-1---------------------|



e|-------------------------|-------------------------|-------------------------|
B|-------------------------|-------------------------|-------------------------|
G|-----------0h2p1p0-------|-----------0h2p1p0-------|---------rest------------|
D|-----0h1h2---------2p1p0-|-----0h1h2---------2p1p0-|-------------------------|
A|-------------------------|-------------------------|-------------------------|
E|-------------------------|-------------------------|-------------------------|
|                                                                             |

 |                                                                             |
e|-------------------------|-------------------------|-------------------------|
B|-------------------------|-------------------------|-------------------------|
G|-------------------------|-------------------------|-------------------------|
D|-4-4---------------------|-5-5-------------------2-|-(2)-------------------3-|
A|-4-4---------------------|-5-5-------------------2-|-(2)-------------------3-|
E|-2-2---------------------|-3-3-------------------0-|-(0)-0--0--0--0--0--0--1-|
                                                        pm................


e|-------------------------|-------------------------|-------------------------|
B|-------------------------|-------------------------|-------------------------|
G|---------rest------------|---------rest------------|----------rest-----------|
D|-------------------------|-------------------------|-------------------------|
A|-------------------------|-------------------------|-------------------------|
E|-------------------------|-------------------------|-------------------------|
|                                                                             |

 |                                                                             |
e|-------------------------|-------------------------|-------------------------|
B|-------------------------|-------------------------|-------------------------|
G|-------------------------|-------------------------|-------------------------|
D|-(3)-------------------4-|-(4)-------------------5-|-(5)-------------------2-|
A|-(3)-------------------4-|-(4)-------------------5-|-(5)-------------------2-|
E|-(1)-1--1--1--1--1--1--2-|-(2)-2--2--2--2--2--2--3-|-(3)-3--3--3--3--3--3--0-|
    pm................          ................          ................


e|-------------------------|-------------------------|-------------------------|
B|-------------------------|-------------------------|-------------------------|
G|-------------------------|-------------------------|-------------------------|
D|-(2)-------------------3-|-(3)-------------------4-|-(4)-------------------5-|
A|-(2)-------------------3-|-(3)-------------------4-|-(4)-------------------5-|
E|-(0)-0--0--0--0--0--0--1-|-(1)-1--1--1--1--1--1--2-|-(2)-2--2--2--2--2--2--3-|
    pm................          ................          ................


 [Guitar solo 1]
                       pb17
e|----------------------19-|-(19)r(17)-12h17p12----12----12-------------|
B|-------------------------|--------------------15----17----15p12----12-|
G|-------------------------|--------------------------------------15----|
D|-------------------------|--------------------------------------------|
A|-------------------------|--------------------------------------------|
E|-------------------------|--------------------------------------------|
|                                                                      |

 |                                                                      |
e|-------------------------|--------------------------------------------|
B|-------------------------|--------------------------------------------|
G|-------------------------|--------------------------------------------|
D|-(5)-------------------2-|-(2)--------------------------------------3-|
A|-(5)-------------------2-|-(2)--------------------------------------3-|
E|-(3)-3--3--3--3--3--3--0-|-(0)---0-----0-----0-----0-----0-----0----1-|
    pm................            ...............................


e|----------------------------------------|
B|-17p15p12-15p12-------------------12----|
G|----------------14p12-15p14p12-14----15-|
D|----------------------------------------|
A|----------------------------------------|
E|----------------------------------------|
|                                        |

 |                                        |
e|----------------------------------------|
B|----------------------------------------|
G|----------------------------------------|
D|-(3)----------------------------------4-|
A|-(3)----------------------------------4-|
E|-(1)----1----1----1----1----1----1----2-|
       pm..........................


e|------------------------------------------------|
B|-------------------12h14------------------------|
G|-14p12-14p12-14h15-------0h15p14p12-14h15p14p12-|
D|------------------------------------------------|
A|------------------------------------------------|
E|------------------------------------------------|
|                                                |

 |                                                |
e|------------------------------------------------|
B|------------------------------------------------|
G|------------------------------------------------|
D|-(4)-----------------------------------------5--|
A|-(4)-----------------------------------------5--|
E|-(2)-----2-----2-----2-----2-----2-----2-----3--|
        pm...............................


e|-------------------------------------------------|
B|-------------------------------------------------|
G|-13p12-------------------------------------------|
D|-------14-13-12-12-14-13-12-12-13-13-14-13-12-13-|
A|-------------------------------------------------|
E|-------------------------------------------------|
|                                                 |
|                                                 |

e|-------------------------------------------------|
B|-------------------------------------------------|
G|-------------------------------------------------|
D|-(5)-------------------------------------------2-|
A|-(5)-------------------------------------------2-|
E|-(3)----3-----3-----3-----3------3------3------0-|
       pm.................................


e|-------------------------------------------------|
B|-------------------------------------------------|
G|----------12h13-12h13-12h14p13p12----12h14h15h16-|
D|-12g13----------------------------14-------------|
A|-------14----------------------------------------|
E|-------------------------------------------------|
|                                                 |
|                                                 |

e|-------------------------------------------------|
B|-------------------------------------------------|
G|-------------------------------------------------|
D|-(2)-------------------------------------------3-|
A|-(2)-------------------------------------------3-|
E|-(0)---0------0------0------0------0------0----1-|
      pm....................................


e|-------------------------------12h15-12----------|
B|-14p12-15-17p15p12----12h15h16------------12h15--|
G|-------------------15----------------------------|
D|-------------------------------------------------|
A|-------------------------------------------------|
E|-------------------------------------------------|
|                                                 |

 |                                                 |
e|-------------------------------------------------|
B|-------------------------------------------------|
G|-------------------------------------------------|
D|-(3)-------------------------------------------4-|
A|-(3)-------------------------------------------4-|
E|-(1)---1------1------1------1------1------1----2-|
      pm....................................


e|----12----------------12---15p12---15p12-15-|
B|-15----15p12-15p12-15------------0----------|
G|--------------------------------------------|
D|--------------------------------------------|
A|--------------------------------------------|
E|--------------------------------------------|
|                                            |
|                                            |

e|--------------------------------------------|
B|--------------------------------------------|
G|--------------------------------------------|
D|-(4)--------------------------------------5-|
A|-(4)--------------------------------------5-|
E|-(2)---2-----2-----2-----2-----2-----2----3-|
      pm...............................


e|-17p15p12----------12h15h17-------12-17b(19)~|
B|----------12h15h17----------12h15------------|
G|---------------------------------------------|
D|---------------------------------------------|
A|---------------------------------------------|
E|---------------------------------------------|
|                                             |

 |                                             |
e|---------------------------------------------|
B|---------------------------------------------|
G|---------------------------------------------|
D|-(5)---------------------------------------2-|
A|-(5)---------------------------------------2-|
E|-(3)----3-----3-----3-----3-----3-----3----0-|
       pm...............................


e|-(19)~~~~~~~~~~~~~~~~~~~~|~(19)~~~~~~~~~~~~~~~~~~~~|~(19)~~~~~~~~~~~~~~~~~~~~|
B|-------------------------|-------------------------|----------fade-----------|
G|-------------------------|-------------------------|-------------------------|
D|-------------------------|-------------------------|-------------------------|
A|-------------------------|-------------------------|-------------------------|
E|-------------------------|-------------------------|-------------------------|
|                                                                             |

 |                                                                             |
e|-------------------------|-------------------------|-------------------------|
B|-------------------------|-------------------------|-------------------------|
G|-------------------------|-------------------------|-------------------------|
D|-(2)----------------4--5-|-(5)-------------------2-|-(2)----------------5--4-|
A|-(2)----------------2--3-|-(3)-3--3--3--3--2--1--0-|-(0)-0--0--0--0--0--3--2-|
E|-(0)-0--0--0--0--0-------|-------------------------|-------------------------|
    pm.............             ................          .............


e|-------------------------|-------------------------|-------------------------|
B|-------------------------|-------------------------|-------------------------|
G|-------------------------|-------------------------|-------------------------|
D|-(4)-------------------9-|-(9)-------------------5-|-(5)-------------------2-|
A|-(2)-2--2--2--2--5--6--7-|-(7)-7--7--7--7--6--5--3-|-(3)-3--3--3--3--2--1--0-|
E|-------------------------|-------------------------|-------------------------|
    pm................          ................          ................


e|-------------------------|-------------------------|
B|-------------------------|-------------------------|
G|-------------------------|-------------------------|
D|-(2)-------------------4-|-(4)---------------------|
A|-(0)-0--0--0--0--2--3--2-|-(2)-2--2--2--2--1--0--2-|
E|-------------------------|-----------------------0-|
    pm................          ................

  Guitar 4
e|-------------------------|-------------------------|-------------------------|
B|-----------14b(15)----\--|-----------14b(15)----\--|-----------14b(15)---14--|
G|-----------14b(16)----\--|-----------14b(16)----\--|-----------14b(16)---14--|
D|-------------------------|-------------------------|-------------------------|
A|-------------------------|-------------------------|-------------------------|
E|-------------------------|-------------------------|-------------------------|
|                                                                             |

 |Guitars 1 & 2                                                                |
e|-------------------------|-------------------------|-------------------------|
B|-------------------------|-------------------------|-------------------------|
G|-------------------------|-------------------------|-------------------------|
D|-(2)----------------4--5-|-(5)-------------------2-|-(2)----------------5--4-|
A|-(2)----------------2--3-|-(3)-3--3--3--3--2--1--0-|-(0)-0--0--0--0--0--3--2-|
E|-(0)-0--0--0--0--0-------|-------------------------|-------------------------|
    pm.............             ................          .............


e|-------------------------|-------------------------|-------------------------|
B|--------------14\----15--|-(15)-\------------------|---------------------12/-|
G|--------------14\----14b-|-(16)-\------------------|-------------------------|
D|-------------------------|-------------------------|-------------------------|
A|-------------------------|-------------------------|-------------------------|
E|-------------------------|-------------------------|-------------------------|
|                                                                             |

 |                                                                             |
e|-------------------------|-------------------------|-------------------------|
B|-------------------------|-------------------------|-------------------------|
G|-------------------------|-------------------------|-------------------------|
D|-(4)-------------------9-|-(9)-------------------5-|-(5)-------------------2-|
A|-(2)-2--2--2--2--5--6--7-|-(7)-7--7--7--7--6--5--3-|-(3)-3--3--3--3--2--1--0-|
E|-------------------------|-------------------------|-------------------------|
    pm................          ................          ................

  *-3       -2      -1      -1   -1   -1   -1   -1        *(w/whammy bar)
   \/       \/      \/      \/   \/   \/   \/   \/
|-------------------------|-------------------------|
|-/24-------23------22----|-19---18---15---14---12--|
|-------------------------|-------------------------|
|-------------------------|-------------------------|
|-------------------------|-------------------------|
|-------------------------|-------------------------|
|                         |                         |   
                      
 |                         |                         |                         
e|-------------------------|-------------------------|
B|-------------------------|-------------------------|
G|-------------------------|-------------------------|
D|-(2)-------------------4-|-(4)---------------------|
A|-(0)-0--0--0--0--2--3--2-|-(2)-2--2--2--2--1--0--2-|
E|-------------------------|-----------------------0-|
    pm................          ................

   \
    \-3/
e|-------------------------|-------------------------|-------------------------|
B|-14----------------------|-------------------------|-------------------------|
G|-------------------------|---------rest------------|---------rest------------|
D|-------------------------|-------------------------|-------------------------|
A|-------------------------|-------------------------|-------------------------|
E|-------------------------|-------------------------|-------------------------|
|                                                                             |

 |                                                                             |
e|-------------------------|-------------------------|-------------------------|
B|-------------------------|-------------------------|-------------------------|
G|-------------------------|-------------------------|-------------------------|
D|-(2)----------------4--5-|-(5)-------------------2-|-(2)----------------5--4-|
A|-(2)----------------2--3-|-(3)-3--3--3--3--2--1--0-|-(0)-0--0--0--0--0--3--2-|
E|-(0)-0--0--0--0--0-------|-------------------------|-------------------------|
    pm.............             ................          .............


e|-------------------------|-------------------------|-------------------------|
B|-------------------------|-------------------------|-------------------------|
G|-------------------------|-------------------------|-------------------------|
D|-(4)-------------------9-|-(9)-------------------5-|-(5)-------------------2-|
A|-(2)-2--2--2--2--5--6--7-|-(7)-7--7--7--7--6--5--3-|-(3)-3--3--3--3--2--1--0-|
E|-------------------------|-------------------------|-------------------------|
    pm................          ................          ................


[Guitar solo 2]

  Guitar 5 (w/delay)
e|-------------------------|-------------------------|
B|-------------------------|-------------------------|
G|---------rest------------|-------------------------|
D|-------------------------|-------------------------|
A|-------------------------|-------------------------|
E|-------------------------|-----------------3h4p3h4-|
|                         |                         |   
                     
 |Guitars 1 & 2            |                         |                         
e|-------------------------|-------------------------|
B|-------------------------|-------------------------|
G|-------------------------|-------------------------|
D|-(2)-------------------4-|-(4)-------------------2-|
A|-(0)-0--0--0--0--2--3--2-|-(2)-2--2--2--2--1--0--0-|
E|-------------------------|-------------------------|
    pm................          ................


e|---------------------------------|---------------------------------|
B|---------------------------------|----------------------8h9h10p9p8-|
G|---------------------------------|-----5h6h7/8h9p8h9h10------------|
D|-----------------------5h6h7p6p5h|-6h7-----------------------------|
A|---3h4h5/4h5h6/7p5h6h7-----------|---------------------------------|
E|-5-------------------------------|---------------------------------|
|                                 |                                 |   
                    
 |                                 |                                 |                       
e|---------------------------------|---------------------------------|
B|---------------------------------|---------------------------------|
G|---------------------------------|---------------------------------|
D|-(2)---------------------------3-|-(3)---------------------------5-|
A|-(0)---0---0---0---0---0---0---1-|-(1)---0---0---0---0---0---0---3-|
E|---------------------------------|---------------------------------|
      pm.....................             .....................

                                         -1
                                         \/                      
e|---------------------------------|---------------------------------|
B|-9\6h8p5h6h7h8/10~~~~~~~~~~~~~~~-|-(10)-8/12h15~~~~~~~~~~~~~-------|
G|---------------------------------|-----------------------------<3>-|
D|---------------------------------|---------------------------------|
A|---------------------------------|---------------------------------|
E|---------------------------------|---------------------------------|
|                                 |                                 |    
                   
 |                                 |                                 |                       
e|---------------------------------|---------------------------------|
B|---------------------------------|---------------------------------|
G|---------------------------------|---------------------------------|
D|-(5)--------------------------10-|-(10)----------9--(9)----------2-|
A|-(3)---0---0---0---0---0---0--8--|-(8)---0---0---7--(7)--0---0---0-|
E|---------------------------------|---------------------------------|
      pm.....................             .....           .....

                           +3
                 -1       /  \
\*  -3    -2     / \     /    \
 \  / \   / \   /   \   /      \    
-5\/ -5\ / -4\ /   -3\ /        \

e|---------------------------------|---------------------------------|
B|---------------------------------|---------------------------------|
G|*(3)-(3)--(3)-----(3)--------(3)-|-----5-5-5-7-7-7-5-5-4-4---------|
D|---------------------------------|-------------------------7-7-5-5-|
A|---------------------------------|---------------------------------|
E|---------------------------------|---------------------------------|
|                                 |   pm............................|                       
|                                 |                                 | 
                      
e|---------------------------------|---------------------------------|
B|---------------------------------|---------------------------------|
G|---------------------------------|---------------------------------|
D|-(2)---------------------------3-|-(3)---------------------------5-|
A|-(0)---0---0---0---0---0---0---1-|-(1)---0---0---0---0---0---0---3-|
E|---------------------------------|---------------------------------|
      pm.....................             .....................

*(whammy bar dives, listen to record for exact articulation)


e|---------------------------------|---------------------------------|
B|---------------------------------|---------------------------------|
G|---------------------------------|---------------------------------|
D|-3-3-----------------------------|-------------------------10-9h10-|
A|-----7-7-5-5-3-3-----------------|---------------------------------|
E|-----------------7-7-3-3-3-3-5---|-(5)~~~~~~~~~~(5)~~~~~~~---------|
|pm..........                     |                                 | 
                     
 |                                 |                                 |                       
e|---------------------------------|---------------------------------|
B|---------------------------------|---------------------------------|
G|---------------------------------|---------------------------------|
D|-(5)--------------------------10-|-(10)----------9--(9)----------2-|
A|-(3)---0---0---0---0---0---0--8--|-(8)---0---0---7--(7)--0---0---0-|
E|---------------------------------|---------------------------------|
      pm.....................             .....           .....


e|--------------------------------------------------|
B|--------------------------------------------------|
G|-9-12p9------------9-12p9----------11-14p11-11----|
D|--------10-10-9h10--------12-11h12-------------12-|
A|--------------------------------------------------|
E|--------------------------------------------------|
|                                                  |    
         
 |                                                  |                 
e|--------------------------------------------------|
B|--------------------------------------------------|
G|--------------------------------------------------|
D|-(2)--------------------------------------------3-|
A|-(0)----0------0------0------0------0------0----1-|
E|--------------------------------------------------|
       pm....................................

                                              ph
e|------------------------------------------------|
B|------------------------------------------------|
G|----12-16p12-12-------12-16-17-14-----------17--|
D|-14-------------14-14-------------15-14-15------|
A|------------------------------------------------|
E|------------------------------------------------|
|                                                |  
             
 |                                                |                   
e|------------------------------------------------|
B|------------------------------------------------|
G|------------------------------------------------|
D|-(3)-----------------------------------------5--|
A|-(1)-----0-----0-----0-----0-----0-----0-----3--|
E|------------------------------------------------|
        pm...............................

                                                             ph
e|---------------------------------|---------------------------------|
B|---------------------------------|---------------------------------|
G|-(17)~~~~~~~~~~~~~~~~~-----------|---------------------------------|
D|-----------------------15-15-14--|----------------14---15--14b(15)-|
A|---------------------------------|-17---15---17--------------------|
E|---------------------------------|---------------------------------|
|                                 |                                 |  
                     
 |                                 |                                 |                       
e|---------------------------------|---------------------------------|
B|---------------------------------|---------------------------------|
G|---------------------------------|---------------------------------|
D|-(5)--------------------------10-|-(10)----------9--(9)----------2-|
A|-(3)---0---0---0---0---0---0--8--|-(8)---0---0---7--(7)--0---0---0-|
E|---------------------------------|---------------------------------|
      pm.....................             .....           .....


e|---------------------------------|---------------------------------|
B|---------------------------------|---------------------------------|
G|---------------------------------|-12~~~~~-------------------------|
D|-(14)~~~~---------------12-14-14-|---------------------------15-17-|
A|---------------12-14-15----------|------------------15-17-19-------|
E|---------13-15-------------------|---------15-17-19----------------|
|       pm....................... |       pm........................|  
                     
 |                                 |                                 |                       
e|---------------------------------|---------------------------------|
B|---------------------------------|---------------------------------|
G|---------------------------------|---------------------------------|
D|-(2)---------------------------3-|-(3)---------------------------5-|
A|-(0)---0---0---0---0---0---0---1-|-(1)---0---0---0---0---0---0---3-|
E|---------------------------------|---------------------------------|
      pm.....................             .....................


e|----------------------------------------17-20b(22)-|
B|----------------------------16-17-19-20------------|
G|-------------------16-17-19------------------------|
D|-17p15----15-17-19---------------------------------|
A|-------19------------------------------------------|
E|---------------------------------------------------|
|                                                   |    
                                  
 |                                                   |                                      
e|---------------------------------------------------|
B|---------------------------------------------------|
G|---------------------------------------------------|
D|-(5)--------------------------------------------10-|
A|-(3)----0------0------0------0------0-----0-----8--|
E|---------------------------------------------------|
       pm...................................


e|-(22)---20----19----17--------------|
B|--------------------------20----17--|
G|------------------------------------|
D|------------------------------------|
A|------------------------------------|
E|------------------------------------|
|                                    |   
                                   
 |                                    |                                      
e|------------------------------------|
B|------------------------------------|
G|------------------------------------|
D|-(10)----------9---(9)------------2-|
A|-(8)---0---0---7---(7)---0---0----0-|
E|------------------------------------|
      pm.....             .....


e|---------------------------------|---------------------------------|
B|-20b----------(22)-------r(20)---|-(20b)--------(23)----------(20)-|
G|---------------------------------|---------------------------------|
D|---------------------------------|---------------------------------|
A|---------------------------------|---------------------------------|
E|---------------------------------|---------------------------------|
|                                 |                                 |

 |Guitar 4                         |                                 |
e|---------------------------------|---------------------------------|
B|---------------------------------|---------------------------------|
G|---------------------------------|---------------------------------|
D|-[7]--[6]--[5]-------------------|-[7]--[6]--[5]-------------------|
A|------------------[7]--[6]--[5]--|------------------[7]--[6]--[5]--|
E|---------------------------------|---------------------------------|
|                                 |                                 | 
                      
 |                                 |                                 |                       
e|---------------------------------|---------------------------------|
B|---------------------------------|---------------------------------|
G|---------------------------------|---------------------------------|
D|-(2)---------------------------3-|-(3)---------------------------5-|
A|-(0)---0---0---0---0---0---0---1-|-(1)---0---0---0---0---0---0---3-|
E|---------------------------------|---------------------------------|
      pm.....................             .....................


e|---------------------------------|---------------------------------|
B|-(20b)--------(24)-------r(23)---|-r(22)-------r(21)---------r(20)-|
G|---------------------------------|---------------------------------|
D|---------------------------------|---------------------------------|
A|---------------------------------|---------------------------------|
E|---------------------------------|---------------------------------|
|                                 |                                 |

 |                                 |                                 |
e|---------------------------------|---------------------------------|
B|---------------------------------|---------------------------------|
G|---------------------------------|-----------------[5]-------------|
D|-[7]--[6]--[5]-------------------|-[7]--[5]-------------[7]--[5]---|
A|------------------[7]--[6]--[5]--|-----------[7]-------------------|
E|---------------------------------|---------------------------------|
|                                 |                                 |    
                   
 |                                 |                                 |                       
e|---------------------------------|---------------------------------|
B|---------------------------------|---------------------------------|
G|---------------------------------|---------------------------------|
D|-(5)--------------------------10-|-(10)----------9--(9)----------2-|
A|-(3)---0---0---0---0---0---0--8--|-(8)---0---0---7--(7)--0---0---0-|
E|---------------------------------|---------------------------------|
      pm.....................             .....           .....

 **\                        **\          
    \2                         \3
e|---------------------------------|---------------------------------|
B|-(20)*w/feedback-------------<7>-|-(7)-----------(7)-----------(7)-|
G|---------------------------------|---------------------------------|
D|---------------------------------|---------------------------------|
A|---------------------------------|---------------------------------|
E|---------------------------------|---------------------------------|
|                                 |                                 |

 |                                 |                                 |
e|---------------------------------|---------------------------------|
B|---------------------------------|---------------------------------|
G|---------------------------------|---------------------------------|
D|-[7]--[6]--[5]-------------------|-[7]--[6]--[5]-------------------|
A|------------------[7]--[6]--[5]--|------------------[7]--[6]--[5]--|
E|---------------------------------|---------------------------------|

 |                                 |                                 |
e|---------------------------------|---------------------------------|
B|---------------------------------|---------------------------------|
G|---------------------------------|---------------------------------|
D|-(2)---------------------------3-|-(3)---------------------------5-|
A|-(0)---0---0---0---0---0---0---1-|-(1)---0---0---0---0---0---0---3-|
E|---------------------------------|---------------------------------|
      pm.....................             .....................

                            **\
                               \6
e|---------------------------------|---------------------------------|
B|-(7)-----------------------------|---------------------------------|
G|----------------------------<3>--|--(3)-----------(3)---------(3)--|
D|---------------------------------|---------------------------------|
A|---------------------------------|---------------------------------|
E|---------------------------------|---------------------------------|
|                                 |                                 |
|                                 |                                 |

e|---------------------------------|---------------------------------|
B|---------------------------------|---------------------------------|
G|---------------------------------|---------------------------------|
D|-[7]--[6]--[5]-------------------|---------------------------------|
A|------------------[7]--[6]--[5]--|-----------[5]--------------[5]--|
E|---------------------------------|-[8]--[5]---------[8]--[5]-------|
|                                 |                                 |  
                     
 |                                 |                                 |                       
e|---------------------------------|---------------------------------|
B|---------------------------------|---------------------------------|
G|---------------------------------|---------------------------------|
D|-(5)--------------------------10-|-(10)----------9--(9)----------2-|
A|-(3)---0---0---0---0---0---0--8--|-(8)---0---0---7--(7)--0---0---0-|
E|---------------------------------|---------------------------------|
      pm.....................             .....           .....

(** indicates gradual dives over notated duration)


e|---------------------------------|---------------------------------|
B|---------------------------------|---------------------------------|
G|---------------------------------|---------------------------------|
D|-[7]--[6]--[5]-------------------|-[7]--[6]--[5]-------------------|
A|------------------[7]--[6]--[5]--|------------------[7]--[6]--[5]--|
E|---------------------------------|---------------------------------|
|                                 |                                 |   
                    
 |                                 |                                 |                       
e|---------------------------------|---------------------------------|
B|---------------------------------|---------------------------------|
G|---------------------------------|---------------------------------|
D|-(2)---------------------------3-|-(3)---------------------------5-|
A|-(0)---0---0---0---0---0---0---1-|-(1)---0---0---0---0---0---0---3-|
E|---------------------------------|---------------------------------|
      pm.....................             .....................


e|---------------------------------|---------------------------------|
B|---------------------------------|---------------------------------|
G|---------------------------------|-----------------[5]-------------|
D|-[7]--[6]--[5]-------------------|-[7]--[5]-------------[7]--[5]---|
A|------------------[7]--[6]--[5]--|-----------[7]-------------------|
E|---------------------------------|---------------------------------|
|                                 |                                 |  
                     
 |                                 |                                 |                       
e|---------------------------------|---------------------------------|
B|---------------------------------|---------------------------------|
G|---------------------------------|---------------------------------|
D|-(5)--------------------------10-|-(10)----------9--(9)----------2-|
A|-(3)---0---0---0---0---0---0--8--|-(8)---0---0---7--(7)--0---0---0-|
E|---------------------------------|---------------------------------|
      pm.....................             .....           .....
         

e|---------------------------------|---------------------------------|
B|---------------------------------|---------------------------------|
G|---------------------------------|---------------------------------|
D|-[7]--[6]--[5]-------------------|-[7]--[6]--[5]-------------------|
A|------------------[7]--[6]--[5]--|------------------[7]--[6]--[5]--|
E|---------------------------------|---------------------------------|
|                                 |                                 |    
                   
 |                                 |                                 |                       
e|---------------------------------|---------------------------------|
B|---------------------------------|---------------------------------|
G|---------------------------------|---------------------------------|
D|-(2)---------------------------3-|-(3)---------------------------5-|
A|-(0)---0---0---0---0---0---0---1-|-(1)---0---0---0---0---0---0---3-|
E|---------------------------------|---------------------------------|
      pm.....................             .....................


e|---------------------------------|---------------------------------|
B|---------------------------------|---------------------------------|
G|---------------------------------|---------------------------------|
D|-[7]--[6]--[5]-------------------|---------------------------------|
A|------------------[7]--[6]--[5]--|-----------[5]--------------[5]--|
E|---------------------------------|-[8]--[5]---------[8]--[5]-------|
|                                 |                                 |   
                    
 |                                 |                                 |                       
e|---------------------------------|---------------------------------|
B|---------------------------------|---------------------------------|
G|---------------------------------|---------------------------------|
D|-(5)--------------------------10-|-(10)----------9--(9)----------2-|
A|-(3)---0---0---0---0---0---0--8--|-(8)---0---0---7--(7)--0---0---0-|
E|---------------------------------|---------------------------------|
      pm.....................             .....           .....


e|-----------------|-------------------|-------------------|-------------------|
B|-----------------|-------------------|-------------------|-------------------|
G|-----------------|-------rest--------|-------rest--------|-------rest--------|
D|-----------------|-------------------|-------------------|-------------------| 
A|-[5]-------------|-------------------|-------------------|-------------------|
E|-----------------|-------------------|-------------------|-------------------|
|                                                                             |

 |                                                                             |
e|-----------------|-------------------|-------------------|-------------------|
B|-----------------|-------------------|-------------------|-------------------|
G|-----------------|-------------------|-------------------|-------------------|
D|-2-------------3-|-(3)-------------4-|-(4)-------------5-|-(5)-------------2-| 
A|-2-------------3-|-(3)-------------4-|-(4)-------------5-|-(5)-------------2-|
E|-0-0-0-0-0-0-0-1-|-(1)-1-1-1-1-1-1-2-|-(2)-2-2-2-2-2-2-3-|-(3)-3-3-3-3-3-3-0-|
  pm...........         ...........         ...........         ...........


e|-------------------|-------------------|-------------------|-------------------|
B|-------------------|-------------------|-------------------|-------------------|
G|-------rest--------|-------rest--------|-------rest--------|-------rest--------|
D|-------------------|-------------------|-------------------|-------------------| 
A|-------------------|-------------------|-------------------|-------------------|
E|-------------------|-------------------|-------------------|-------------------|
|                                                                               |

 |                                                                               |
e|-------------------|-------------------|-------------------|-------------------|
B|-------------------|-------------------|-------------------|-------------------|
G|-------------------|-------------------|-------------------|-------------------| 
D|-(2)-------------3-|-(3)-------------4-|-(4)-------------5-|-(5)-------------2-| 
A|-(2)-------------3-|-(3)-------------4-|-(4)-------------5-|-(5)-------------2-|
E|-(0)-0-0-0-0-0-0-1-|-(1)-1-1-1-1-1-1-2-|-(2)-2-2-2-2-2-2-3-|-(3)-3-3-3-3-3-3-0-|
    pm...........         ...........         ...........         ...........


e|-------------------|-------------------|-------------------|-------------------|
B|-----5-5-5-5-------|------6-6-6-6-6----|------7-7-7-7-7-7--|------8-8-8-8-8-8--|
G|-----4-4-4-4-------|------5-5-5-5-5----|------6-6-6-6-6-6--|------7-7-7-7-7-7--|
D|-------------------|-------------------|-------------------|-------------------| 
A|-------------------|-------------------|-------------------|-------------------|
E|-------------------|-------------------|-------------------|-------------------|
|                                                                               |

 |                                                                               |
e|-------------------|-------------------|-------------------|-------------------|
B|-------------------|-------------------|-------------------|-------------------|
G|-------------------|-------------------|-------------------|-------------------|
D|-(2)-------------3-|-(3)-------------4-|-(4)-------------5-|-(5)-------------6-| 
A|-(2)-------------3-|-(3)-------------4-|-(4)-------------5-|-(5)-------------6-|
E|-(0)-0-0-0-0-0-0-1-|-(1)-1-1-1-1-1-1-2-|-(2)-2-2-2-2-2-2-3-|-(3)-3-3-3-3-3-3-4-|
    pm...........         ...........         ...........         ...........


e|-------------------|-------------------|-------------------|-------------------|
B|-----9-9-9-9-9-9---|-----10-10-10-10---|------11---11-11---|---12--------------|
G|-----8-8-8-8-8-8---|------9--9--9--9---|------10---10-10---|---11--------------|
D|-------------------|-------------------|-------------------|-------------------| 
A|-------------------|-------------------|-------------------|-------------------|
E|-------------------|-------------------|-------------------|-------------------|
|                                                                               |

 |                                                                               |
e|-------------------|-------------------|-------------------|-------------------|
B|-------------------|-------------------|-------------------|-------------------|
G|-------------------|-------------------|-------------------|-------------------|
D|-(6)-------------7-|-(7)-------------8-|-(8)-------------9-|-(9)---------------| 
A|-(6)-------------7-|-(7)-------------8-|-(8)-------------9-|-(9)-------2---0---|
E|-(4)-4-4-4-4-4-4-5-|-(5)-5-5-5-5-5-5-6-|-(6)-6-6-6-6-6-6-7-|-(7)-7-7-7---3---0-|
    pm...........         ...........         ...........         ...........

bpm = 110


[Outro]

  Guitar 3
e|-----------0-----|---------0-------|-----------------|-----------------|
B|---------0---0---|-------0---0-----|-----------------|-----------------|
G|-------7-------0-|-----7-----------|------rest-------|------rest-------|
D|-----5-----------|---5-------------|-----------------|-----------------|
A|---9-------------|-9---------------|-----------------|-----------------|
E|-0---------------|-----------------|-----------------|-----------------|
|                                                                       |  
                     
 |Guitar 1                                                               |                       
e|-----------0-----|---------0-------|-----------------|-----------------|
B|---------0---0---|-------0---0-----|-----------------|-----------------|
G|-------7-------0-|-----7-----------|-----------------|-----------------| x2
D|-----5-----------|---5-------------|-2---------------|-(2)-------------|
A|---9-------------|-9---------------|-2---------------|-(2)-------------|
E|-0---------------|-------------0-0-|-0---------------|-(0)-------------|
|pm......           ...         ...                                     |   
                    
 |Guitar 2                                                               |                       
e|-----------------|-----------------|-----------------|-----------------|
B|-----------------|-----------------|-----------------|-----------------|
G|-----------------|-----------------|-----------------|-----------------|
D|-9---------------|-(9)-------------|---0-4-0-2-0-----|-----------0-4-0-|
A|-7---------------|-(7)-------------|-2-----------2-0-|-------0-2-------|
E|-0---------------|-(0)---------0-0-|-----------------|-3-2-3-----------|
                              pm...

                                   slight rit.--------------------------|
-----------0-----|---------0-------|-----------------|-----------------|
---------0---0---|-------0---0-----|-----------------|-----------------|
-------7-------7-|-----7-----------|------rest-------|------rest-------|
-----5-----------|---5-------------|-----------------|-----------------|
---9-------------|-9---------------|-----------------|-----------------|
-0---------------|-----------------|-----------------|-----------------|

 |                                                                       |                       
 |                                                                       |                       
e|-----------0-----|---------0-------|-----------------|-----------------|
B|---------0---0---|-------0---0-----|-----------------|-----------------|
G|-------7-------7-|-----7-----------|-----------------|-----------------| 
D|-----5-----------|---5-------------|-2---------------|-(2)-------------|
A|---9-------------|-9---------------|-2---------------|-(2)-------------|
E|-0---------------|-------------0-0-|-0---------------|-(0)-------------|
|pm......           ...         ...                                     |     
                  
 |                                                                       |                       
e|-----------------|-----------------|-----------------|-----------------|
B|-----------------|-----------------|-----------------|-----------------|
G|-----------------|-----------------|-----------------|-----------------|
D|-9---------------|-(9)-------------|---0-4-0-2-0-----|-----------0-4-0-|
A|-7---------------|-(7)-------------|-2-----------2-0-|-------0-2-------|
E|-0---------------|-(0)---------0-0-|-----------------|-3-2-3-----------|
                              pm...

  Guitars 1 & 3     
e|-0---------------|-(0)-------------|-(0)-------------|-0------(0)------|
B|-0---------------|-(0)-------------|-(0)-------------|-3------(3)------|
G|-x---------------|-----------------|-----------------|-0------(0)------| 
D|-2---------------|-(2)-------------|-(2)-------------|-2------(2)------|
A|-2---------------|-(2)-------------|-(2)-------------|-2------(2)------|
E|-0---------------|-(0)-------------|-(0)-------------|-0------(0)------|
|                                                                       | 
             
 |Guitars 2                                                              |                       
e|-----------------|-----------------|-----------------|-----------------|
B|-----------------|-----------------|-----------------|-----------------|
G|-9---------------|-(9)-------------|-(9)-------------|-9------(9)\-----|
D|-9---------------|-(9)-------------|-(9)-------------|-9------(9)\-----|
A|-7---------------|-(7)-------------|-(7)-------------|-7------(7)\-----|
E|-0---------------|-(0)-------------|-(0)-------------|-0------(0)------|


************************************

pm = palm mute
h  = hammer-on
p  = pull-off
pb = pre bend (bent from fret number indicated)
r  = release bend
b  = bend
~  = vibrato
\/ = slides
<> = natural harmonic
ph = pinch harmonic
[] = slight pinch harmonics
 
************************************
Suggest correction
comments
print report bad tab
24 comments total. Showing first comments. show 1 bad comment
0 reply
Silent_Scream1 40 Apr 19, 2005 12:00 AM

my fingers are too small to play the acoustic intro. nice tab though

0 reply
Silent_Scream1 40 Apr 19, 2005 12:00 AM

Ppl with small fingers like me or jus cant play the normal intro i kinda re-fingered it.

|------------0------|-----------0-----|-----------------|------------|
|--------3p0---0h3--|-------3p0---0h3-|-----------------|------------|
|------0------------|-----0-----------|------rest-------|------------|
|----4--------------|---4-------------|-----------------|------------|
|-------------------|-9---------------|-----------------|------------|
|-0-----------------|-----------------|-----------------|------------|

guest
You may want to rate the tab now too:
select rating
Wanna post a correction for this tab? Suggest correction