Oops, an error
Loading. Please wait.

Into The Lungs Of Hell Bass Tab

version 1
version 1

Whole song

1,236 views 1 this week
no commentswrite comment
1 2 3 4 5
excellent!
x 3
add to favorites
launch autoscroll
font size
0
reset
guitar tuner
Tab Pro tools
  • play this tab
  • loop segment
  • change instrument
  • show fretboard
  • metronome
×
Best way to learn
"Into The Lungs Of Hell"
Autoscroll
slow
fast
+/-
esc
set tempo
stop
Into the Lungs of Hell - Megadeth
Jon Craven (nojnevarc@hotmail.com; www.geocities.com/larsramirez2001)
(enters @ 0:17)

Riff 1: (very hard to time this riff, therefore the timing probably isn't right)
G:--------------|--------------|--------------|--------------|--------------|--------------|
D:--------------|--------------|--------------|--------------|--------------|--------------|
A:-6--6666-8--6-|--------------|-4--4444-6--4-|--------------|-2--2222-4--2-|--------------|
E:--------------|-6--6666-5--4-|--------------|-4--4444-3--2-|--------------|-2--2222-1--0-|

G:--------------|-------------|------------|
D:--------------|--------2--1-|-0----------|
A:-0--0000-2--0-|-------------|----2--1--0-|
E:--------------|-0--000------|------------|

Riff 2: (x4)
G:-----------------|-----------------|-----------------|-----------------|
D:-----------------|-----------------|-----------------|-----------------|
A:-----------------|-----------------|-----------------|-----------------|
E:-0-0-0-0-0-0-0-0-|-0-0-0-0-0-0-0-0-|-1-1-1-1-1-1-1-1-|-1-1-1-1-1-1-1-1-|

Riff 3: (x12)
G:-----------------|-----------------|----------------|-------------|
D:-2-2-2-2-2-2-2-2-|-----------------|----------------|-5****-5-4-3-|
A:-----------------|-----------------|----------------|-------------|
E:-----------------|-0-0-0-0-0-0-0-0-|-3-3-3-3-3-3-3*-|-------------|

Riff 4: (x2)
G:----------|----------|----------|-----------|
D:----------|----------|----------|-----------|
A:-0*******-|----------|-0*******-|-3***-2--3-|
E:----------|-1*******-|----------|-----------|

Riff 5:
G:------------|------------|----------|------------|------------|------------|-----------|-----------|
D:------------|------------|----------|------------|------------|------------|-----------|---------5-|
A:-0*****-3---|--------3---|--------3-|-5--3--2--3-|-0*****-3---|--------3---|--------/5-|-****-7----|
E:----------3-|-******---2-|-******---|------------|----------3-|-******---2-|-******----|-----------|

G:------------|------------|----------|------------|------------|------------|------------|-----------|
D:------------|------------|----------|------------|------------|------------|------------|-----------|
A:-0*****-3---|--------3---|--------3-|-5--3--2--3-|-0*****-3---|--------3---|--------3-0-|-*********-|
E:----------3-|-******---2-|-******---|------------|----------3-|-******---2-|-******-----|-----------|

G:------------|------------|----------|------------|------------|------------|----------|------------|
D:------------|------------|----------|------------|------------|------------|----------|------------|
A:--------5---|--------5---|--------5-|-7--5--4--5-|--------5---|--------5---|--------5-|-5--7--9***-|
E:-7*****---5-|-******---4-|-******---|------------|-7*****---5-|-******---4-|-******---|------------|

Riff 6: (might have slight variations {it's hard to hear each individual note})
G:-----------------|-----------------|-----------------|-----------------|-----------------|
D:-5-5-5-5-5-5-5-5-|-4-4-4-4-4-4-4-4-|-5-5-5-5-5-5-5-5-|-4-4-4-4-4-4-4-4-|-8-8-8-8-8-8-8-8-|
A:-----------------|-----------------|-----------------|-----------------|-----------------|
E:-----------------|-----------------|-----------------|-----------------|-----------------|

G:-----------------|-----------------|-----------------|-6-6-6-6-6-6-6-6-|-5-5-5-5-5-5-5-5-|
D:-7-7-7-7-7-7-7-7-|-8-8-8-8-8-8-8-8-|-7-7-7-7-7-7-7-7-|-----------------|-----------------|
A:-----------------|-----------------|-----------------|-----------------|-----------------|
E:-----------------|-----------------|-----------------|-----------------|-----------------|

G:-6-6-6-6-6-6-6-6-|-5-5-5-5-5-5-5-5-|-6-6-6-6-5-5-5-5-|-6-6-6-6-5-5-5-5-|-6--5--6--5-|-6--5--6--5-|
D:-----------------|-----------------|-----------------|-----------------|------------|------------|
A:-----------------|-----------------|-----------------|-----------------|------------|------------|
E:-----------------|-----------------|-----------------|-----------------|------------|------------|

End: (could be an octave lower)
G:----------|----------|----------|----------|----------|----------|----------|----------|----------|
D:-4*******-|-3*******-|-2*******-|-1*******-|-0*******-|-********-|-********-|-********-|-********-|
A:----------|----------|----------|----------|----------|----------|----------|----------|----------|
E:----------|----------|----------|----------|----------|----------|----------|----------|----------|

G:----------|----------|----------|----------|----------|----------|----------|
D:-********-|-********-|-********-|-********-|-********-|-********-|-********-|
A:----------|----------|----------|----------|----------|----------|----------|
E:----------|----------|----------|----------|----------|----------|----------|

Break till end
comments
We did not receive enough feedback on this tab! Please rate:
print report bad tab
1 2 3 4 5
I want to post or [tab]
guest
You may want to rate the tab now too:
select rating
Please do not post tabs as comments. Select "correction" instead!