Oops, an error
Loading. Please wait.

Into The Lungs Of Hell Bass Tab

version 2
version 2

Whole song

937 views 3 this week
no commentswrite comment
1 2 3 4 5
3 more votes to show rating
add to favorites
launch autoscroll
font size
0
reset
guitar tuner
Autoscroll
slow
fast
+/-
esc
set tempo
stop
Help us to improve Ultimate-Guitar.com Take our survey!
×
#----------------------------------PLEASE NOTE---------------------------------#
#This file is the author's own work and represents their interpretation of the #
#song. You may only use this file for private study, scholarship, or research. #
#------------------------------------------------------------------------------#

INTO THE LUNGS OF HELL (Bassline)
As recorded by Megadeth
(From the 1988 Album SO FAR, SO GOOD... SO WHAT)

Transcribed by DoomMaker (DoomMaker@Chello.hu)
	

Words by - Music by Dave Mustaine
Arranged by Megadeth

Gtr I (E A D G) - 'Eleffson'

 Instrumental
  Q=120
 4/4
  Gtr I
  W          W          W
|----------|----------|------|
|----------|----------|------|
|----------|----------|------|
|----------|----------|------|


  W          W          W          W
|----------|----------|----------|------|
|----------|----------|----------|------|
|----------|----------|----------|------|
|----------|----------|----------|------|


                |-3-| |-3-|      |-3-| |-3-|
  W          Q  E E E Q Q Q   Q  E E E Q Q Q
|----------|----------------|----------------|
|----------|----------------|----------------|
|----------|-6--6-6-6-6-8-6-|----------------|
|----------|----------------|-6--6-6-6-6-6-6-|


     |-3-| |-3-|      |-3-| |-3-|      |-3-| |-3-|
  Q  E E E Q Q Q   Q  E E E Q Q Q   Q  E E E Q Q Q
|----------------|----------------|----------------|
|----------------|----------------|----------------|
|-4--4-4-4-4-6-4-|----------------|-2--2-2-2-2-4-2-|
|----------------|-4--4-4-4-4-3-2-|----------------|


                                                    2/4
     |-3-| |-3-|      |-3-| |-3-|      |-3-| |-3-|   |-3-|
  Q  E E E Q Q Q   Q  E E E Q Q Q   Q  E E E Q Q Q   Q Q Q
|----------------|----------------|----------------|--------|
|----------------|----------------|----------------|--------|
|----------------|----------------|----------7-6-5-|--------|
|-2--2-2-2-2-1-0-|-5--5-5-5-5-7-5-|-0--0-0-0-------|-5-4-3--|


    Q=180
   4/4
    |-3-| |-3-| |-3-| |-3-|   |-3-| |-3-| |-3-| |-3-|
    E E E E E E E E E E E E   E E E E E E E E E E E E  8x
||--------------------------|--------------------------||
||o-------------------------|-------------------------o||
||o-------------------------|-------------------------o||
||--0-0-0-0-0-0-0-0-0-0-0-0-|-0-0-0-0-0-0-0-0-0-0-0-0--||


       |-3-| |-3-| |-3-|   |-3-| |-3-| |-3-| |-3-|
    Q  E E E E E E E E E   E E E E E E E E E E E E
||-----------------------|-------------------------|
||o----------------------|-------------------------|
||o-7--7-7-7-7-7-7-7-7-7-|-------------------------|
||-----------------------|-0-0-0-0-0-0-0-0-0-0-0-0-|


  |-3-| |-3-| |-3-| |-3-|   |-3-| |-3-| |-3-|
  E E E E E E E E E E E E   E E E E E E Q Q Q 12x
|-------------------------|--------------------||
|-------------------------|-5-5-5-5-5-5-------o||
|-------------------------|-------------------o||
|-3-3-3-3-3-3-3-3-3-3-3-3-|-------------3-2-3--||


    |-3-| |-3-| |-3-| |-3-|   |-3-| |-3-| |-3-| |-3-|
    E E E E E E E E E E E E   E E E E E E E E E E E E
||--------------------------|--------------------------|
||o-------------------------|--------------------------|
||o-0-0-0-0-0-0-0-0-0-0-0-0-|--------------------------|
||--------------------------|-1-1-1-1-1-1-1-1-1-1-1-1--|


  |-3-| |-3-| |-3-| |-3-|   |-3-| |-3-| |-3-| |-3-|
  E E E E E E E E E E E E   E E E E E E E E E E E E
|-------------------------|--------------------------||
|-------------------------|-------------------------o||
|-0-0-0-0-0-0-0-0-0-0-0-0-|-3-3-3-3-3-3-2-2-2-3-3-3-o||
|-------------------------|--------------------------||


  |-3-| |-3-| |-3-| |-3-|   |-3-| |-3-| |-3-| |-3-|
  E E E E E E E E E E E E   E E E E E E E E E E E E
|-------------------------|-------------------------|
|-------------------------|-------------------------|
|-0-0-0-0-0-0-0-0-0-3-3-3-|-------------------3-3-3-|
|-------------------------|-3-3-3-3-3-3-3-3-3-------|


  |-3-| |-3-| |-3-| |-3-|   |-3-| |-3-| |-3-| |-3-|
  E E E E E E E E E E E E   E E E E E E E E E E E E
|-------------------------|-------------------------|
|-------------------------|-------------------------|
|-------------------3-3-3-|-5-5-5-3-3-3-2-2-2-3-3-3-|
|-2-2-2-2-2-2-2-2-2-------|-------------------------|


  |-3-| |-3-| |-3-| |-3-|   |-3-| |-3-| |-3-| |-3-|
  E E E E E E E E E E E E   E E E E E E E E E E E E
|-------------------------|-------------------------|
|-------------------------|-------------------------|
|-0-0-0-0-0-0-0-0-0-3-3-3-|-------------------3-3-3-|
|-------------------------|-3-3-3-3-3-3-3-3-3-------|


  |-3-| |-3-| |-3-| |-3-|   |-3-| |-3-| |-3-| |-3-|
  E E E E E E E E E E E E   E E E E E E E E E E E E
|-------------------------|-------------------------|
|-------------------------|-------------------------|
|-------------------3-3-3-|-5-5-5-5-5-5-7-7-7-------|
|-2-2-2-2-2-2-2-2-2-------|-------------------8-8-8-|


  |-3-| |-3-| |-3-| |-3-|   |-3-| |-3-| |-3-| |-3-|
  E E E E E E E E E E E E   E E E E E E E E E E E E
|-------------------------|-------------------------|
|-------------------------|-------------------------|
|-------------------3-3-3-|-------------------3-3-3-|
|-5-5-5-5-5-5-5-5-5-------|-3-3-3-3-3-3-3-3-3-------|


  |-3-| |-3-| |-3-| |-3-|   |-3-| |-3-| |-3-| |-3-|
  E E E E E E E E E E E E   E E E E E E E E E E E E
|-------------------------|-------------------------|
|-------------------------|-------------------------|
|-------------------3-3-3-|-5-5-5-3-3-3-2-2-2-3-3-3-|
|-2-2-2-2-2-2-2-2-2-------|-------------------------|


  |-3-| |-3-| |-3-| |-3-|   |-3-| |-3-| |-3-| |-3-|
  E E E E E E E E E E E E   E E E E E E E E E E E E
|-------------------------|-------------------------|
|-------------------------|-------------------------|
|-0-0-0-0-0-0-0-0-0-3-3-3-|-------------------3-3-3-|
|-------------------------|-3-3-3-3-3-3-3-3-3-------|


  |-3-| |-3-| |-3-| |-3-|   |-3-| |-3-| |-3-| |-3-|
  E E E E E E E E E E E E   E E E E E E E E E E E E
|-------------------------|-------------------------|
|-------------------------|-------------------------|
|-------------------3-3-3-|-5-5-5-5-5-5-7-7-7-------|
|-2-2-2-2-2-2-2-2-2-------|-------------------8-8-8-|


  |-3-| |-3-| |-3-| |-3-|   |-3-| |-3-| |-3-| |-3-|
  E E E E E E E E E E E E   E E E E E E E E E E E E
|-------------------------|-------------------------|
|-------------------------|-------------------------|
|-------------------5-5-5-|-------------------5-5-5-|
|-7-7-7-7-7-7-7-7-7-------|-5-5-5-5-5-5-5-5-5-------|


  |-3-| |-3-| |-3-| |-3-|   |-3-| |-3-| |-3-| |-3-|
  E E E E E E E E E E E E   E E E E E E E E E E E E
|-------------------------|-------------------------|
|-------------------------|-------------------------|
|-------------------5-5-5-|-7-7-7-5-5-5-4-4-4-5-5-5-|
|-4-4-4-4-4-4-4-4-4-------|-------------------------|


  |-3-| |-3-| |-3-| |-3-|   |-3-| |-3-| |-3-| |-3-|
  E E E E E E E E E E E E   E E E E E E E E E E E E
|-------------------------|-------------------------|
|-------------------------|-------------------------|
|-------------------5-5-5-|-------------------5-5-5-|
|-7-7-7-7-7-7-7-7-7-------|-5-5-5-5-5-5-5-5-5-------|


  |-3-| |-3-| |-3-| |-3-|   |-3-| |-3-| |-3-| |-3-|
  E E E E E E E E E E E E   E E E E E E E E E E E E
|-------------------------|-------------------------|
|-------------------------|-------------------------|
|-------------------5-5-5-|-7-7-7-7-7-7-9-9-9-9-9-9-|
|-4-4-4-4-4-4-4-4-4-------|-------------------------|


        |-3-|         |-3-|         |-3-|         |-3-|
  Q  Q  Q Q Q   Q  Q  Q Q Q   Q  Q  Q Q Q   Q  Q  Q Q Q
|-------------|-------------|-------------|--------------|
|-------------|-------------|-------------|--------------|
|-------------|-------------|-------------|--------------|
|-3--3--3-3-3-|-2--2--2-2-2-|-3--3--3-3-3-|-2--2--2-2-2--|


        |-3-|         |-3-|         |-3-|         |-3-|
  Q  Q  Q Q Q   Q  Q  Q Q Q   Q  Q  Q Q Q   Q  Q  Q Q Q
|-------------|-------------|-------------|--------------|
|-------------|-------------|-------------|--------------|
|-1--1--1-1-1-|-0--0--0-0-0-|-1--1--1-1-1-|-0--0--0-0-0--|
|-------------|-------------|-------------|--------------|


        |--3--|         |--3--|         |--3--|         |--3--|
  Q  Q  Q Q E E   Q  Q  Q Q E E   Q  Q  Q Q E E   Q  Q  Q Q E E
|---------------|---------------|---------------|---------------|
|---------------|---------------|---------------|---------------|
|-4--4--4-4-4-4-|-3--3--3-3-3-3-|-4--4--4-4-4-4-|-3--3--3-3-3-3-|
|---------------|---------------|---------------|---------------|


  Q  Q  Q  Q    Q  Q  Q  Q    Q  Q  Q  Q    E E E E E E E E
|-------------|-------------|-------------|-----------------|
|-------------|-------------|-------------|-----------------|
|-4--4--3--3--|-4--4--3--3--|-4--3--4--3--|-4-4-3-3-4-4-3-3-|
|-------------|-------------|-------------|-----------------|


  W          W          W          W
|----------|----------|----------|------|
|----------|----------|----------|-1----|
|----------|----------|----------|------|
|-2--------|-1--------|-0--------|------|


  W          +W           +W
|----------|------------|--------|
|-0--------|-(0)--------|-(0)----|
|----------|------------|--------|
|----------|------------|--------|


  +W           +W           +W
|------------|------------|--------*|
|-(0)--------|-(0)--------|-(0)----*|
|------------|------------|--------*|
|------------|------------|--------*|



Duration Legend
---------------
W - whole; H - half; Q - quarter; E - 8th; S - 16th; T - 32nd; X - 64th; a - acciaccatura
+ - note tied to previous; . - note dotted; .. - note double dotted
Uncapitalized letters represent notes that are staccato (1/2 duration)
Irregular groupings are notated above the duration line
Duration letters will always appear directly above the note/fret number it represents the
duration for.  Duration letters with no fret number below them represent rests.  Multi-
bar rests are notated in the form Wxn, where n is the number of bars to rest for.  Low
melody durations appear below the staff

Tablature Legend
----------------
 h   - hammer-on
 p   - pull-off
 b   - bend
 pb  - pre-bend
 r   - bend release (if no number after the r, then release immediately)
 /\  - slide into or out of (from/to "nowhere")
 s   - legato slide
 S   - shift slide
 - natural harmonic
[n]  - artificial harmonic
n(n) - tapped harmonic
 ~   - vibrato
 tr  - trill
 T   - tap
 TP  - trem. picking
 PM  - palm muting
\n/  - tremolo bar dip; n = amount to dip
 \n  - tremolo bar down
 n/  - tremolo bar up
/n\  - tremolo bar inverted dip
 =   - hold bend; also acts as connecting device for hammers/pulls
 <> - volume swell (louder/softer)
 x   - on rhythm slash represents muted slash
 o   - on rhythm slash represents single note slash

Misc Legend
-----------
 |  - bar
||  - double bar
||o - repeat start
o|| - repeat end
*|  - double bar (ending)
 :  - bar (freetime)
 $  - Segno
 &  - Coda
Tempo markers -  = BPM(8/16=s8/s16), where s8 = swing 8ths, s16 = swing 16ths

Suggest correction
Give kudos to tab author, rate the tab!
1 2 3 4 5
comments
print report bad tab
guest
You may want to rate the tab now too:
select rating
Wanna post a correction for this tab? Suggest correction