Oops, an error
Loading. Please wait.

Last Rites Loved To Deth Bass Tab

version 1
version 1

Whole song

Interactive

3,918 views 6 this week
no commentswrite comment
1 2 3 4 5
please rate
add to favorites
launch autoscroll
font size
0
reset
guitar tuner
Tab Pro tools
  • play this tab
  • loop segment
  • change instrument
  • show fretboard
  • metronome
×
Best way to learn
"Last Rites Loved To Deth"
Autoscroll
slow
fast
+/-
esc
set tempo
stop
Contributor
#----------------------------------PLEASE NOTE---------------------------------#
#This file is the author's own work and represents their interpretation of the #
#song. You may only use this file for private study, scholarship, or research. #
#------------------------------------------------------------------------------#

LAST RITES/LOVED TO DETH (Bassline)
As recorded by Megadeth
(From the 1985 Album KILLING IS MY BUSINESS... AND BUSINESS IS GOOD!)

Transcribed by livingzombie
	

Words and Music by Dave Mustaine

Gtr I (E A D G) - 'David Ellefson'

 Last Rites
  Q=98
 4/4
  Gtr I
  Wx2          S  S  S S  S S S S  S S S S  S S  S S
|------------|---14-12---10---9--------9---10--------|
|------------|--------------------12------------12---|
|------------|---------------------------------------|
|------------|---------------------------------------|


   S S  S S S S  S S  S S  S S  S S  S S
|-----------9----------------------------|
|-11---12-----------------11---12---14---|
|---------------12---14------------------|
|----------------------------------------|


  S  S  S S  S S  S S  S S  S S  S S  S S
|---15-14---12------------------12--------|
|----------------15---14---15--------10---|
|-----------------------------------------|
|-----------------------------------------|


  S  S  S S  S S  S S  S S  S S  S S  S S
|---14-12---------------------------------|
|-----------15---14---12---14---15--------|
|------------------------------------15---|
|-----------------------------------------|


  H.=H
  S  S  S S S S  S S  S S  S S S S  S S
|---12-10---9------------------9---10---|
|---------------12---11---12------------|
|---------------------------------------|
|---------------------------------------|


  Q=50
   S  S  S  S  S  S  S  S  S  S  S  S  S  S  S  S
|-------14----------14----------12----------12----|
|-12----------12----------11----------11----------|
|----12----12----12----12----12----12----12----12-|
|-------------------------------------------------|


  Q=100H.=H               Q=80
  H    H      H    H      H    H      H    H
|-----------|-----------|-----------|-----------|
|-----------|-----------|-----------|-----------|
|-----------|-----------|-5---------|-----------|
|-6----5----|-3----1----|------6----|-5----3----|


  Q=100
  W          +W           +W           +W
|----------|------------|------------|--------|
|-0--------|-(0)--------|-(0)--------|-(0)----|
|----------|------------|------------|--------|
|----------|------------|------------|--------|


                          Loved To Deth
                           Q=148
  W          +W            Wx3
|----------|------------||--------|
|-0--------|-(0)--------||--------|
|----------|------------||--------|
|----------|------------||--------|


  H.      E. S   H    q  E. S   H    q  E. S   H    q  E. S
|--------------|--------------|--------------|--------------|
|--------------|--------------|--------------|--------------|
|--------------|--------------|--------------|--------------|
|------------3-|-5----6-----3-|-5----6-----3-|-5----6-----3-|


             $
  H    q  Q      E E E E E E E E   E E E E E E E E  8x
|------------||------------------|------------------||
|------------||o-----------------|-----------------o||
|------------||o-0-0-0-0-1-1-1-1-|-0-0-0-0-1-1-1-1-o||
|-5----6-----||------------------|------------------||


   Verse                          Chorus
    Q  +E  S E S S S S S E  8x     S S S S S S S S S S E E E  4x
||--------------------------||-||-----------------------------||
||o------------------------o||-||o---------------------------o||
||o----------6-----------6-o||-||o---------------------------o||
||--5--(5)-----6-5-3-3-3----||-||--0h2-2-0-2-0-0-0-2-2s3-2-0--||


                                                       D.S.
    Q  +E  S E S S S S S E         S S S S S S S S S S E E E
||--------------------------||-||-----------------------------||
||o------------------------o||-||o---------------------------o||
||o----------6-----------6-o||-||o---------------------------o||
||--5--(5)-----6-5-3-3-3----||-||--0h2-2-0-2-0-0-0-2-2s3-2-0--||


    E. E. E. E. E E   E. E. E. E. E E   E E E E E E E E   E E E E E E E E
||------------------|-----------------|-----------------|-------------------||
||o-----------------|-----------------|-----------------|------------------o||
||o-----------------|-------------1-0-|-0-0-0-0-1-1-1-1-|-0-0-0-0-1-1-1-1--o||
||--5--4--3--2--1-0-|-3--2--1--0------|-----------------|-------------------||


   Solo
    Q  +E  S E S S S S S E  8x     S S S S S S S S S S E E E  4x
||--------------------------||-||-----------------------------||
||o------------------------o||-||o---------------------------o||
||o----------6-----------6-o||-||o---------------------------o||
||--5--(5)-----6-5-3-3-3----||-||--0h2-2-0-2-0-0-0-2-2s3-2-0--||


    Q  +E  S E S S S S S E         S S S S S S S S S S E E E
||--------------------------||-||-----------------------------||
||o------------------------o||-||o---------------------------o||
||o----------6-----------6-o||-||o---------------------------o||
||--5--(5)-----6-5-3-3-3----||-||--0h2-2-0-2-0-0-0-2-2s3-2-0--||


  E. E. E. E. E E   E. E. E. E. E E
|-----------------|-----------------|
|-----------------|-----------------|
|-----------------|-------------1-0-|
|-5--4--3--2--1-0-|-3--2--1--0------|


  Q  +E  S E S S S S S E   Q  +E  S E S S S S S E
|------------------------|--------------------------|
|------------------------|--------------------------|
|----------6-----------6-|----------6-----------6---|
|-5--(5)-----6-5-3-3-3---|-5--(5)-----6-5-3-3-3-----|


  E. E. E. E. E E   E. E. E. E. E E   E E E E E E E E   E E E E E E E E
|-----------------|-----------------|-----------------|-----------------|
|-----------------|-----------------|-----------------|-----------------|
|-----------------|-------------1-0-|-0-0-0-0-1-1-1-1-|-0-0-0-0-1-1-1-1-|
|-5--4--3--2--1-0-|-3--2--1--0------|-----------------|-----------------|


   Interlude                          Verse
    q  q  q  q    q  q  q  E E  4x     S S S S S S S S S S S S S S S S
||--------------|---------------||-||-----------------------------------|
||o-------------|----------2---o||-||o----------------------------------|
||o-0--0--0--0--|-0--0--0----1-o||-||o----------------------------------|
||--------------|---------------||-||--5-5-5-6-6-6-5-5-5-3-3-3-5-5-6-6--|


  S S S S S S S S S S S S E E  4x
|------------------------------||-|
|-------------------------2---o||-|
|-------------4h5p4---------1-o||-|
|-5-5-5-6-6-6-------6-5-5------||-|


    E. E. Q  E E E   E. E. S S S S S S E E   4x
||-----------------|-------------------------||
||o----------------|-------------------2----o||
||o----------------|-------4h5p4---------1--o||
||--5--6--5--3-5-6-|-5--6--------6-5-5-------||


  S S S S S S S S S S S S S S S S   S S S S S S S S S S S S S S S S
|---------------------------------|---------------------------------|
|---------------------------------|---------------------------------|
|---------------------------------|---------------------------------|
|-5-5-5-5-5-5-5-5-5-5-5-5-5-5-5-5-|-6-6-6-6-6-6-6-6-6-6-6-6-6-6-6-6-|


  W          +W
|----------|--------|
|----------|--------|
|----------|--------|
|-5--------|-(5)----|


  W          +W           H     H
|----------|------------|------------*|
|----------|------------|------------*|
|----------|------------|------------*|
|-6--------|-(6)--------|-5\---------*|



Duration Legend
---------------
W - whole; H - half; Q - quarter; E - 8th; S - 16th; T - 32nd; X - 64th; a - acciaccatura
+ - note tied to previous; . - note dotted; .. - note double dotted
Uncapitalized letters represent notes that are staccato (1/2 duration)
Irregular groupings are notated above the duration line
Duration letters will always appear directly above the note/fret number it represents the
duration for.  Duration letters with no fret number below them represent rests.  Multi-
bar rests are notated in the form Wxn, where n is the number of bars to rest for.  Low
melody durations appear below the staff

Tablature Legend
----------------
 h   - hammer-on
 p   - pull-off
 b   - bend
 pb  - pre-bend
 r   - bend release (if no number after the r, then release immediately)
 /\  - slide into or out of (from/to "nowhere")
 s   - legato slide
 S   - shift slide
 - natural harmonic
[n]  - artificial harmonic
n(n) - tapped harmonic
 ~   - vibrato
 tr  - trill
 T   - tap
 TP  - trem. picking
 PM  - palm muting
\n/  - tremolo bar dip; n = amount to dip
 \n  - tremolo bar down
 n/  - tremolo bar up
/n\  - tremolo bar inverted dip
 =   - hold bend; also acts as connecting device for hammers/pulls
 <> - volume swell (louder/softer)
 x   - on rhythm slash represents muted slash
 o   - on rhythm slash represents single note slash

Misc Legend
-----------
 |  - bar
||  - double bar
||o - repeat start
o|| - repeat end
*|  - double bar (ending)
 :  - bar (freetime)
 $  - Segno
 &  - Coda
Tempo markers -  = BPM(8/16=s8/s16), where s8 = swing 8ths, s16 = swing 16ths

comments
We did not receive enough feedback on this tab! Please rate:
print report bad tab
1 2 3 4 5
I want to post or [tab]
guest
You may want to rate the tab now too:
select rating
Please do not post tabs as comments. Select "correction" instead!