Oops, an error
Loading. Please wait.

Last Rites Loved To Deth Bass Tab

version 3
version 3

Whole song

491 views 1 this week
no commentswrite comment
1 2 3 4 5
please rate
add to favorites
launch autoscroll
font size
0
reset
guitar tuner
Autoscroll
slow
fast
+/-
esc
set tempo
stop
Help us to improve Ultimate-Guitar.com Take our survey!
×
Author
Difficulty
intermediate
Megadeth- Last Rites

On the last note im pretty sure he plays the open E string in Drop D, but you can just 
play the octave on G string. Hope you enjoy!

Tuning: Standard (EADG)

Time: 4/4

G|-----------------|-----------------|
D|-7-5-------------|-----------------|
A|-----8-7-5-7-8-5-|-4-5-7-----4-5-7-|
E|-----------------|-------5-7-------|

G|-3-2-------------|-2---------------|-----------------|
D|-----5-3-2-3-5---|---5-3-2---2-3---|-5-3-2-------2-3-|
A|---------------3-|---------5-----3-|-------5-4-5-----|
E|-----------------|-----------------|-----------------|

G|-----------------|-----------------|
D|-----7-------7---|-----5-------5---|
A|-5-0---0-5-0---0-|-4-0---0-4-0---0-|
E|-----------------|-----------------|

G|-----------------------|-----------------------|
D|-----------------------|-----------------------|
A|-1----------0----------|-----------------------|
E|-----------------------|-3----------1----------|

G|-----------------------|-----------------------|
D|-----------------------|-----------------------|
A|-5---------------------|-----------------------|
E|------------6----------|-5----------3----------|

G|-----------------------|-----------------------|
D|-----------------------|-----------------------|
A|-5---------------------|-----------------------|
E|-----------------------|-----------------------|

G|-7---------------------|-----------------------|
D|-----------------------|-----------------------|
A|-----------------------|-----------------------|
E|-----------------------|-----------------------|
Suggest correction
Give kudos to tab author, rate the tab!
1 2 3 4 5
comments
print report bad tab
guest
You may want to rate the tab now too:
select rating
Wanna post a correction for this tab? Suggest correction