Oops, an error
Loading. Please wait.

Mary Jane Bass Tab

version 1
version 1

Whole song

961 views 6 this week
no commentswrite comment
1 2 3 4 5
please rate
add to favorites
launch autoscroll
font size
0
reset
guitar tuner
Tab Pro tools
  • play this tab
  • loop segment
  • change instrument
  • show fretboard
  • metronome
×
Best way to learn
"Mary Jane"
Autoscroll
slow
fast
+/-
esc
set tempo
stop
Contributor
Difficulty
intermediate
 12/8
G--------------------|--------------------|--------------------|
D--------------------|--------------------|--------------------|
A-6---------9--------|-8---------7--------|-6---------5--------|
E----0-0-0-----0-0-0-|----0-0-0-----0-0-0-|----0-0-0-----0-0-0-|

                                           "and still i lie awake...
G--------------------|--------------------|-------------------------|
D--------------------|--------------------|-------------------------|
A-4---------3--------|-2---------1--------|-------------------------|
E----0-0-0-----0-0-0-|----0-0-0-----0-0-0-|-1-----------------------|


                                           not sure of the rhythms here
G--------------------|---------------------|---------------------------|
D--------------------|---------------------|---------------------------|
A-5------------------|-----------1---------|---------------------------|
E-----------1--------|-0-----------------2-|-1-0--1-2-3--5-6-7--R------|

                    "mary jane..etc" (there are some bass fills from
here)
G------------------||--------------------|-----|-----|
D-------0--1-2-3-4-||--------------------|--%--|--%--|
A-2-3-4------------||-5--5-5-5--5--5-5-5-|-----|-----|
E------------------||--------------------|-----|-----|

G--------------------|--------------------|--------------------|
D--------------------|--------------------|--------------------|
A-5--5-5-5--3--3-3-3-|-2--2-2-2-----------|-3--3-3-3--2--2-2-2-|
E--------------------|-----------3--3-3-3-|--------------------|

G--------------------|--------------------|--------------------|
D--------------------|--------------------|--------------------|
A-3--3-3-3--4--4-4-4-|-5--5-5-5--3--3-3-3-|-2--2-2-2-----------|
E--------------------|--------------------|-----------3--3-3-3-|


G--------------------|------------------------||
D--------------------|------------------------||
A-3--3-3-3--2--2-2-2-|-1--1-1-1---------------||
E--------------------|-----------3-2-0--3-2-1-||

G----------------------|------------------------|--------------------|
D*---------------------|------------------------|--------------------|
A*-7---------7------9/-|-10---------10------10\\-|-7---------7--------|
E--0--0-0-0--0--0-0-7/-|-8---8-8-8--8---8-8-8-\\-|-5--5-5-5--5--5-5-5-|

G----------------------||----------------------------------||
D----------------------||--------------------5------------*||
A-8--------------------||----7-7--7---5-7--------7--5-7---*||
E-6--6-6-6--6---5---3--||-0---------------0----0--------0--||


G---------------------|--------------------|--------------------|
D*--------------------|--------------------|--------------------|
A*------------------2-|-3--3-3-3--3--3-3-2-|-0--0-0-0--0--0-0-0-|
E--0--0-0-0--0--0-0---|--------------------|--------------------|

G---------------------|---------------------------------||
D---------------------|-------------------5------------*||
A-1--1-1-1--1---0-----|----7-7--7--5-7--------7--5-7---*||
E-------------------3-|-0--------------0----0--------0--||


G--9--9-9-9--9--9-9-9-|-10---10-10-10---10---10-10-10-|
D*-9--9-9-9--9--9-9-9-|-10---10-10-10---10---10-10-10-|
A*-7--7-7-7--7--7-7-7-|-8----8--8--8----8----8--8--8--|
E---------------------|-------------------------------|

                                                               x 3
G-11---11-11-11---11---11-11-11--|-12---12-12-12---12---11--10---||
D-11---11-11-11---11---11-11-11--|-12---12-12-12---12---11--10--*||
A-9----9--9--9----9----9--9--9---|-10---10-10-10---10---9---8---*||
E--------------------------------|-------------------------------||

G--9--9-9-9--9--9-9-9-|-10---10-10-10---10---10-10-10-|
D*-9--9-9-9--9--9-9-9-|-10---10-10-10---10---10-10-10-|
A*-7--7-7-7--7--7-7-7-|-8----8--8--8----8----8--8--8--|
E---------------------|-------------------------------|

G-11---11-11-11---11---11-11-11-|
D-11---11-11-11---11---11-11-11-|
A-9----9--9--9----9----9--9--9--|
E-------------------------------|

G---------------------||
D---------------------||
A---------------------||
E-6---5---(5)---------||

G------------------|------------------|-----|------------------||
D------------------|------------------|--%--|------------------||
A------------------|------------------|-----|------------------||
E-0-r-r-r--0-0-r-r-|-0-0-r-r--0-0-r-r-|-----|-0-0-r-r--0-0-3-1-||

G----------------|---------------------||---------------------|
D----------------|----------h-p-p------||*--------------------|
A----------------|----------^-^-^------||*---5-6-7--(7)-------|
E-0-r--R---R---R-|-R---R---3-5-3-0--3--||--0------------3-3-6-|


G--------------------------|--------------------|
D--------------------------|--------------------|
A--------------------------|---5-6-7--(7)-------|
E-(6)--5-5--3-3--3--1-1--1-|-0------------3-3-6-|

G-------------------------||
D-------------h-p-p------*||
A-------------^-^-^------*||
E-(6)--5-5---3-5-3-0--3---||



G--------------------------|-----------------------------||
D--------------------------|-----------------------------||
A--------------------7-----|-------7---------------------||
E-0--3--r--4---r--0-----r--|-6--5-----0---3-3--3--1-1--1-||

G------------------|------------------|-----|------------------||
D------------------|------------------|--%--|------------------||
A------------------|------------------|-----|------------------||
E-0-r-r-r--0-0-r-r-|-0-0-r-r--0-0-r-r-|-----|-0-0-r-r--0-0-3-1-||


 "as you are now, so once was i...etc                     x 4
G------------------------------|-----------------------------||
D*-----------------------------|----------------------------*||
A*--------5-6--7---------------|--------5-6--7--------------*||
E--0--0------------0--0--6--8--|-0--0------------0--0--3--1--||


G----------------|---------------------|--------------------|
D----------------|----------h-p-p------|--------------------|
A----------------|----------^-^-^------|---5-6-7--(7)-------|
E-0-r--R---R---R-|-R---R---3-5-3-0--3--|-0------------3-3-6-|

G--------------------------|--------------------|
D--------------------------|--------------------|
A--------------------------|---5-6-7--(7)-------|
E-(6)--5-5--3-3--3--1-1--1-|-0------------3-3-6-|

G-------------------------||
D-------------h-p-p-------||
A-------------^-^-^-------||
E-(6)--5-5---3-5-3-0--3---||

G--------------------------|-----------------------------||
D--------------------------|-----------------------------||
A--------------------7-----|-------7---------------------||
E-0--3--r--4---r--0-----r--|-6--5-----0---3-3--3--1-1--1-||


 4 bars rest
G-----------||-------------------------------------|
D-----------||*------------------------------------|
A-----------||*------------------------------------|
E-----------||--0-0-0-0--0-0-0-0--0-0-0-0--0-0-0-0-|

G------------------------------------|------------------------------------|
D------------------------------------|------------------------------------|
A----------------------------3-3-3-3-|------------------------------------|
E-1-1-1-1--1-1-1-1--1-1-1-1----------|-0-0-0-0--0-0-0-0--0-0-0-0--0-0-0-0-|

G------------------------------------|------------------------------------|
D------------------------------------|------------------------------------|
A-------------------3-3-3-3--2-2-2-2-|------------------------------------|
E-1-1-1-1--1-1-1-1-------------------|-0-0-0-0--0-0-0-0--0-0-0-0--0-0-0-0-|

G------------------------------------|------------------------------------|
D------------------------------------|------------------------------------|
A-------------------3-3-3-3--3-3-3-3-|------------------------------------|
E-1-1-1-1--1-1-1-1-------------------|-0-0-0-0--0-0-0-0--0-0-0-0--0-0-0-0-|

G-------------------------------------||
D------------------------------------*||
A-------------------3-3-3-3--5-5-5-5-*||
E-1-1-1-1--1-1-1-1--------------------||

                                             x 4
G-----------------------------------|-----------------------------------||
D*----------------------------------|----------------------------------*||
A*----------------------------------|----------------------------------*||
E--0-0--0---0--0--0---0--0---0--0-0-|-1-1--1---1--1--1---1--1---1--1-1--||

                                                                x 4
G-------------------------------|-----------------------------------||
D*------------------------------|----------------------------------*||
A*------------------------------|----------------------------------*||
E--0--0-0--0-0-0-0--0--2--3--5--|-7--7-7--7-7-7-7--7--7-7--7--6--5--||
                                                           

G-----------------------|---------------------------||
D*----------------------|--------------------------*||
A*----------------------|--------------------------*||
E--0--------0--2--3--5--|-7----------------7--6--5--||

Notation:

h = Hammer on 
p = Pull off
/ = Slide
r = Rest
()= Ghost Note


Since there wasn't any bass tabs for this song I made one. It's my first tab so it isn't 100%.
comments
We did not receive enough feedback on this tab! Please rate:
print report bad tab
1 2 3 4 5
I want to post or [tab]
guest
You may want to rate the tab now too:
select rating
Please do not post tabs as comments. Select "correction" instead!