Oops, an error
Loading. Please wait.

Mechanix bass

version 2
version 2

Whole song

Interactive

2,637 views 1 this week
2 commentsread comments
1 2 3 4 5
x 5
add to favorites
×
Save as Personal and add changes to this tab that will be seen only by you. Learn more ›
×
You can save this tab as Personal to edit and correct it or add notes. All changes will be seen only by you. Learn more »
launch autoscroll
font size
0
reset
guitar tuner
backing track
0:00
0:00
edit
Autoscroll
slow
fast
+/-
esc
set tempo
stop
Author
Difficulty
Megadeth 
Machanix

bass comes in with drums
Intro:
G------------42--------------------------------------I
D--------------432-----------------------------------I
A-2-3-------------4322-3------2-3-----------2-3------I
E-----23-23------------0320-----23-23-------0230-----I

Post Intro:
G----------------------------I
D----------------------------I
A---------3-53----------3-53-I
E---0-0----3--0---0-0----3---I

Pre Verse:                                        
G-------------------------------------------------I
D-------------------------------------------------I
A----7---7---755---7---7---735---7---7---797-3-53-I
E-000-000-000---000-000-000---000-000-000-----3---I

Verse:                                            x2
G-------------------------------------------------I
D-------------------------------------------------I
A----7---7---755---7---7---735---7---7---797-3-53-I
E-000-000-000---000-000-000---000-000-000-----3---I

v=16
Chorus
G-------------------910---------------------I
D----------------79-------------------------I
A-7v-5v-3v-23-57--------7v-5v-33333333-230--I
E-----------------------------------------3-I

Chorus Cont.:                                         x2
G-----------------------------------------------------I
D--------------------------------5H7------------------I
A-757575757575-757575757575---5H7---757575757575-3-53-I
E-------------7------------5H7--------------------3---I

Verse:
Chorus:
Chorus Cont.:

Bridge:                             x4
G-----------------------------------I
D-----------------------------------I
A-7---7---7---7H8P7-7---7---7---7H7-I
E--000-000-000-------000-000-000----I

Brakedown:
G-97-7----------I
D---9-9875-75-5-I
A------------7--I
E---------------I

G------------------------------------------I
D------------------------------------------I
A---------3-53------------------------3-53-I
E---0-0----3--0-0-0-0-0-0-0-0-0-0-0-0--3---I

Verse:
Chorus:
Chorus Cont.:
Bridge:x3
Chorus Cont.: but instead of x2 only once song ends on E-0
Suggest correction
Creating personal tab
Creating personal tab
You can edit any tab online and save it as your Personal.

You can edit, replace or remove any tab part or add personal notes – all changes will be seen only by you.

Personal tabs can be accessed anytime from any device, even offline.
Learn more »
comments
print report bad tab
2 comments total.
+1 reply
bassmasta.1515 10 Nov 10, 2010 09:05 AM

very nice, but on the intro the part that goes: 4-2-4-3-2-4-3-2, try it one string lower.

0 reply
Barton_Trev 10 Jun 11, 2017 04:17 PM

he is the mechanix!!!

guest
You may want to rate the tab now too:
select rating
Wanna post a correction for this tab? Suggest correction