Oops, an error
Loading. Please wait.

Millennium Of The Blind tab

version 2
version 2

Whole song

394 views 9 this week
no commentswrite comment
1 2 3 4 5
3 more votes to show rating
add to favorites
×
Save as Personal and add changes to this tab that will be seen only by you. Learn more ›
×
You can save this tab as Personal to edit and correct it or add notes. All changes will be seen only by you. Learn more »
launch autoscroll
font size
0
reset
how to read this tab
guitar tuner
edit
Autoscroll
slow
fast
+/-
esc
set tempo
stop
Author
SONG:MILLENIUM OF THE BLIND
ALBUM:YOUTHANASIA (BONUS) RE RECORDED FOR TH1RT3EN
BAND:MEGADETH

Guitar 1 Mustaine E A D G B e
Guitar 2 Broderick E A D G B e



[Intro]

(Guitar 1)
e|------------------------------------------5--------------------------------|
B|---------------------------------------------5--6-----5--------------------|
G|---------4--5--7----5--4------4--------------------7-----5--7--------------|
D|-4/7----------------------5------5--7--------------------------8---7-------|
A|---------------------------------------------------------------------------|
E|---------------------------------------------------------------------------|

(Guitar 2)
e|----------0------------------------------------0---------------1-----0-----|
B|--------1---1------------------------------3-----3-----------1-----0-------| (Riff A)
G|------2-------2----------0-----------0---2---2-----2-------2-----1---------|
D|----2------------------2-----------0-----------------0-2-3-----------------|
A|--0--------------0-2-3-----2-0---2-------------------------------------1---|
E|-------------------------------3-------2-----------------------------------|


(Guitar 1)
e|---------------------------------------------------------------------------|
B|---------------------------------------------------------------------------|
G|-4--5--7---5--7-/9--7--9-/11--9--11-/12---14-/17--17--17--14---------------|
D|---------------------------------------------------------------------------|
A|---------------------------------------------------------------------------|
E|---------------------------------------------------------------------------|

(Guitar 2)                                                           End of riff A
e|----------0------------------------------------0---------------1-----0-----|
B|--------1---1------------------------------3-----3-----------1-----0---0---|
G|------2-------2----------0-----------0---2---2-----2-------2-----1---------|
D|----2------------------2-----------0-----------------0-2-3-----------------|
A|--0--------------0-2-3-----2-0---2-----------------------------------------|
E|-------------------------------3-------2-----------------------------------|

(Guitar 1)
e|------------------------------------------10--13-11p10----13-10-11-10h11-----------|
B|-----10h11p10-----10h11h13p11p10----10h11--------------13-----------------13-11p10-|
G|-15-----------12-----------------12------------------------------------------------|
D|-----------------------------------------------------------------------------------|
A|-----------------------------------------------------------------------------------|
E|-----------------------------------------------------------------------------------|

(Guitar 2) 
e|---------------------3-------------------------------------------------------------|
B|-------------3-----------3----------------------3--------------3-------------------|
G|-------3----------3-----------3------------3-------------3-------------------------| (Riff B)
D|-5--------------------------------5----4-------------3-----------------------3---2-|
A|-----------------------------------------------------------------------------------|
E|-----------------------------------------------------------------------------------|


(Guitar 1)
e|---------------------------------------------------------------------------|
B|-13p11----11-10----10--------------8--8----8-------------------13--10--11--|
G|-------12-------12----12\10-7--10-------7-----7--8---------11--------------|
D|----------------------------------------------------10/13------------------|
A|---------------------------------------------------------------------------|
E|---------------------------------------------------------------------------|

(Guitar 2)
e|-------------3--------------------------------------3-----------------------|
B|-------3-------3---------------------------3----------------3---------------|
G|----3------3-----3-----------------5-----------------------------5----------|
D|-1--------------------------4----------------------------------------4--5---|
A|-------------------4---5----------------------------------------------------|
E|----------------------------------------------------------------------------|


(Guitar 1)
e|-----10--13p11p10----10h11p10----------------------------------------------|
B|------------------13----------13-10h13p11-----13p11p10---------------------|
G|------------------------------------------12------------12-----------------|
D|---------------------------------------------------------------------------|
A|---------------------------------------------------------------------------|
E|---------------------------------------------------------------------------|

(Guitar 2)
e|-----------------3---------------------------------------------------------|
B|---------3----------3------------------------------------------------------|
G|-----3-------3---------3-----------2--------0------------------------------|
D|--------------------------5-----2--------0---------------------------------|
A|-----------------------------0--------1------------3---5-------------------|
E|---------------------------------------------------------------------------|

(Guitar 1)
e|---------------------------------------------------------------------------|
B|-10h11~~~~~~---------10~~~~~~~---------------------------------------------|
G|---------------------------------------------------------------------------|
D|---------------------------------------------------------------------------|
A|---------------------------------------------------------------------------|
E|---------------------------------------------------------------------------|

(Guitar 2)
e|----------------------------------------------------------------------------|
B|---------------8--------------------6-------------------------1-----------0-|
G|--------8---------8--------------8------------7------------3-----------2----|
D|-----8------8--------8--------7------------7------------2-----------1-------|
A|--6---------------------6--6------------5---------0--3-----------2----------|
E|----------------------------------------------------------------------------|


[Verse]

(Guitar 2 plays Riff A followed by Riff B)

e|----------0------------------------------------0---------------1-----0-----|
B|--------1---1------------------------------3-----3-----------1-----0-------| (Riff A)
G|------2-------2----------0-----------0---2---2-----2-------2-----1---------|
D|----2------------------2-----------0-----------------0-2-3-----------------|
A|--0--------------0-2-3-----2-0---2-------------------------------------1---|
E|-------------------------------3-------2-----------------------------------|

e|---------------------3-------------------------------------------------------------|
B|-------------3-----------3----------------------3--------------3-------------------|
G|-------3----------3-----------3------------3-------------3-------------------------| (Riff B)
D|-5--------------------------------5----4-------------3-----------------------3---2-|
A|-----------------------------------------------------------------------------------|
E|-----------------------------------------------------------------------------------|

(Ends with distorted F5)


[Pre-Chorus]

PM--------------------------------------------------------------|
e|----------------------------------------------------------------|
B|----------------------------------------------------------------|
G|----------------------------------------------------------------|
D|----------------------------------------------------------------|x2
A|2-2-2-2-3-3-3-3-2-2-2-2-8-7-6-5-2-2-2-2-3-3-3-3-2-2-2-2-8-7-6-5-|
E|0-0-0-0-1-1-1-1-0-0-0-0-6-5-4-3-0-0-0-0-1-1-1-1-0-0-0-0-6-5-4-3-|


[Chorus]

                   PM----------|                  PM----------|
e|-----------------------------------------------------------------|
B|-----------------------------------------------------------------|
G|-----------------------------------------------------------------|
D|---------------------------------------------------------------2-|
A|-2-----8-----7-----3-2-1---------2-----7/8----7---3-2-1--------0-|
E|-0-----6-----5-----------3-2-1---0-----5/6----5---------3-2-1----|


[Interlude]

(Guitar 2) 

(repeats Riff A throughout)

e|----------0------------------------------------0---------------1-----0-----|
B|--------1---1------------------------------3-----3-----------1-----0-------| (Riff A)
G|------2-------2----------0-----------0---2---2-----2-------2-----1---------|
D|----2------------------2-----------0-----------------0-2-3-----------------|
A|--0--------------0-2-3-----2-0---2-------------------------------------1---|
E|-------------------------------3-------2-----------------------------------|

(Guitar 1)
e|--------------------------------------------------------|
B|----------12--13\8---12-----13--------------------------|
G|--12/14-------------------------11----12p11--10---12p10-|
D|--------------------------------------------------------|
A|--------------------------------------------------------|
E|--------------------------------------------------------|

e|-------------------------------------------------------------------17b---17--17|
B|----------------------10-12-13-12p10-12/15--13\12--15/17---15--13--------------|
G|-9------------9-10-12----------------------------------------------------------|
D|------9-10-12------------------------------------------------------------------|
A|-------------------------------------------------------------------------------|
E|-------------------------------------------------------------------------------|


[Verse]

(Guitar 2 plays Riff A followed by Riff B)

e|----------0------------------------------------0---------------1-----0-----|
B|--------1---1------------------------------3-----3-----------1-----0-------| (Riff A)
G|------2-------2----------0-----------0---2---2-----2-------2-----1---------|
D|----2------------------2-----------0-----------------0-2-3-----------------|
A|--0--------------0-2-3-----2-0---2-------------------------------------1---|
E|-------------------------------3-------2-----------------------------------|

e|---------------------3-------------------------------------------------------------|
B|-------------3-----------3----------------------3--------------3-------------------|
G|-------3----------3-----------3------------3-------------3-------------------------| (Riff B)
D|-5--------------------------------5----4-------------3-----------------------3---2-|
A|-----------------------------------------------------------------------------------|
E|-----------------------------------------------------------------------------------|

(Ends with distorted F5)


[Pre-Chorus]

PM--------------------------------------------------------------|
e|----------------------------------------------------------------|
B|----------------------------------------------------------------|
G|----------------------------------------------------------------|
D|----------------------------------------------------------------|x2
A|2-2-2-2-3-3-3-3-2-2-2-2-8-7-6-5-2-2-2-2-3-3-3-3-2-2-2-2-8-7-6-5-|
E|0-0-0-0-1-1-1-1-0-0-0-0-6-5-4-3-0-0-0-0-1-1-1-1-0-0-0-0-6-5-4-3-|


  (Guitar 1 plays this over the end of the verse and start of pre-choruss)

e|-------10tr11--------------------------------------------------------------|
B|10tr11---------10tr11---8h11p8--t13-8h11-----------------------------------|
G|-------------------------------------------9~~---9~~~---9~~~---9~~~--------|
D|---------------------------------------------------------------------------|
A|---------------------------------------------------------------------------|
E|---------------------------------------------------------------------------|


[Chorus]

                   PM----------|                  PM----------|
e|-----------------------------------------------------------------|
B|-----------------------------------------------------------------|
G|-----------------------------------------------------------------|
D|---------------------------------------------------------------2-|
A|-2-----8-----7-----3-2-1---------2-----7/8----7---3-2-1--------0-|
E|-0-----6-----5-----------3-2-1---0-----5/6----5---------3-2-1----|


[Bridge]

e|---------------------------------------------------------------------------------|
B|---------------------------------------------------------------------------------|
G|---------------------------------------------------------------------------------|
D|2--2-2-2-2--2-2-2-2--2-2-2-------------------------------------------------------|
A|0--0-0-0-0--0-0-0-0--0-0-0-3-2-1--------2--2-2-2-2--2-2-2-2--2-2-2--3-2-1--------|
E|---------------------------------3-2-1--0--0-0-0-0--0-0-0-0--0-0-0--------3-2-1--|

e|---------------------------------------------------------------------------------|
B|---------------------------------------------------------------------------------|
G|---------------------------------------------------------------------------------|
D|4--4-4-4-4--4-4-4-4--4-4-4-------------------------------------------------------|
A|2--2-2-2-2--2-2-2-2--2-2-2--3-2-1--------4--4-4-4-4--4-4-4-4--4-4-4--3-2-1-------|
E|----------------------------------3-2-1--2--2-2-2-2--2-2-2-2--2-2-2--------3-2-1-|

e|-----------------------------------------------------------------------------------|
B|-----------------------------------------------------------------------------------|
G|-----------------------------------------------------------------------------------|
D|7--7-7-7-7--7-7-7-7--7-7-7---------------------------------------------------------|
A|5--5-5-5-5--5-5-5-5--5-5-5--3-2-1--------7--7-7-7-7--7-7-7-7--7-7-7--3-2-1---------|
E|----------------------------------3-2-1--5--5-5-5-5--5-5-5-5--5-5-5--------3-2-1---|

e|----------------------------------------------------------------|
B|----------------------------------------------------------------|
G|----------------------------------------------------------------|
D|----------------------------------------------------------------|
A|2--2-2-2-2--2-2-2-2--2-2-2--3-2-1--------3----------------------|
E|0--0-0-0-0--0-0-0-0--0-0-0--------3-2-1--1----------------------|

(Guitar 2) 
e|--------10tr11------------------------------|
B|10tr11----------10r11---8tr11---------------|
G|-------------------------------8tr10---7tr8-|  plays this just before the solo
D|--------------------------------------------|
A|--------------------------------------------|
E|--------------------------------------------|


[Solo]

(Rhythm behind the solo is the chorus)

e|-17brb----15--14h15h17p15p14------14-----------------------------------|
B|------------------------------16------15br--15---15--13----------------|
G|---------------------------------------------------------15-14--12--11-|
D|-----------------------------------------------------------------------|
A|-----------------------------------------------------------------------|
E|-----------------------------------------------------------------------|

e|---------------------------15b--17--18-17br-15-17-|
B|----------------14br--17--------------------------|
G|14brp12--14p12------------------------------------|
D|--------------------------------------------------|
A|--------------------------------------------------|
E|--------------------------------------------------|


[Chorus]

                   PM----------|                  PM----------|
e|-----------------------------------------------------------------|
B|-----------------------------------------------------------------|  (but end on a C5)
G|-----------------------------------------------------------------|
D|---------------------------------------------------------------2-|
A|-2-----8-----7-----3-2-1---------2-----7/8----7---3-2-1--------0-|
E|-0-----6-----5-----------3-2-1---0-----5/6----5---------3-2-1----|


[Outro]

(Guitar Riff A ending on an Asus2)

e|----------0------------------------------------0---------------1-----0-----|
B|--------1---1------------------------------3-----3-----------1-----0-------| (Riff A)
G|------2-------2----------0-----------0---2---2-----2-------2-----1---------|
D|----2------------------2-----------0-----------------0-2-3-----------------|
A|--0--------------0-2-3-----2-0---2-------------------------------------1---|
E|-------------------------------3-------2-----------------------------------|


************************************
| h   Hammer-on
| p   Pull-off
| b   Bend
| br  Bend release
| pb  Pre-bend
| pbr Pre-bend release
| /   Slide up
| \   Slide down
| PM  Palm mute
| tr  Trill
| ~   Vibrato
************************************

            
            
Suggest correction
Creating personal tab
Creating personal tab
You can edit any tab online and save it as your Personal.

You can edit, replace or remove any tab part or add personal notes – all changes will be seen only by you.

Personal tabs can be accessed anytime from any device, even offline.
Learn more »
Give kudos to tab author, rate the tab!
1 2 3 4 5
comments
print report bad tab
guest
You may want to rate the tab now too:
select rating
Wanna post a correction for this tab? Suggest correction