Oops, an error
Loading. Please wait.

Never Walk Alone A Call To Arms tab

version 2
version 2

Whole song

3,608 views 1 this week
no commentswrite comment
1 2 3 4 5
x 3
add to favorites
×
Save as Personal and add changes to this tab that will be seen only by you. Learn more ›
×
You can save this tab as Personal to edit and correct it or add notes. All changes will be seen only by you. Learn more »
launch autoscroll
font size
0
reset
how to read this tab
guitar tuner
edit
Autoscroll
slow
fast
+/-
esc
set tempo
stop
Author
Difficulty
Megadeth:  Never Walk Alone...A Call To Arms

transcribed by: Russ Elton      (webmaster@abysslord.com) 

PLEASE DO NOT COPY THIS TAB TO ANOTHER SITE 
WITHOUT AUTHORS' PERMISSION.  THANK YOU!

Date last modified:  May 05, 2007

Find more Megadeth tabs, including the most updated
version of this tab, at:

              The Vault of Deth:
   The Ultimate Megadeth Guitar Tab Collection
        http://abysslord.com/megadeth/

Tuning: Standard

Intro
Guitar 1
e|---------------------------------|
B|---------------------------------|
G|---------------------------------|
D|-4-----3-----2-------------------|
A|---0-2---0-2---2-5-3-2-0-2~--0-3-|
E|---------------------------------|
     * *   * *   *   * * *     * *
e|---------------------------------|
B|---------------------------------|
G|---------------------------------|
D|-4-----3-----2-------------------|
A|---0-2---0-2---2-5-3-2-0-2~--0-4-|
E|---------------------------------|
     * *   * *   *   * * *     * *
e|---------------------------------|
B|---------------------------------|
G|---------------------------------|
D|-4-----3-----2-------------------|
A|---0-2---0-2---2-5-3-2-0-2~--0-3-|
E|---------------------------------|
     * *   * *   *   * * *     * *
e|---------------------------------|
B|---------------------------------|
G|---------------------------------|
D|-4-----3-----2-------------------|
A|---0-2---0-2---2-5-3-2-0-2-----2-|
E|---------------------------0-2---|
     * *   * *   *   * * *

Guitar 2
e|--------------------|
B|--------------------|
G|--------------------|
D|-4----------------5-|
A|-2----------------3-|
E|--------------------|

e|---------------------------------|
B|---------------------------------|
G|---------------------------------|
D|-6-----3-----2-------------------|
A|-4-0-2---0-2---2-5-3-2-0-2~--0-3-|
E|---------------------------------|
     * *   * *   *   * * *     * *
e|---------------------------------|
B|---------------------------------|
G|---------------------------------|
D|-4-----3-----2-------------------|
A|---0-2---0-2---2-5-3-2-0-2-----2-|
E|---------------------------0-2---|
     * *   * *   *   * * *


Riff 1
e|---------------------------------|
B|---------------------------------|
G|---------------------------------|
D|-4-----3-----2-------------------|
A|---0-2---0-2---2-5-3-2-0-2-----2-|
E|---------------------------0-2---|
     * *   * *   *   * * *
   "Hiding in any..."


Riff 2
e|-----------------|
B|-----------------|
G|-----------------|
D|-4--3--2-----0-2-|
A|-4--3--2--2--0-2-|
E|----------2------|
            *
   "...die."


Riff 3
e|-------------------------------|
B|-------------------------------|
G|-------------------------------|
D|---------4---------------------|
A|-2~--0-2-----5------------5--4-|
E|-----------3-5-0--3~--2-3----2-|
       * *   *   *      * *
   "When you feel..."
e|----------------------------------|
B|----------------------------------|
G|----------------------------------|
D|-------5h7------------------------|
A|-5h7---------5h7--9-8-----7h9-----|
E|-----0-----0----------9~------10\-|
       *     *
   "I'll shelter..."

Ending to Riff 3:
e|------------------|
B|------------------|
G|------------------|
D|---------------5--|
A|-5--------2----3--|
E|-3--------0-------|
   "...me."


Riff 1a (Solo Rhythm)
e|---------------------------------|
B|---------------------------------|
G|---------------------------------|
D|-4-----3-----2-------------------|
A|---0-2---0-2---2-5-3-2-0-2~--0-3-|
E|---------------------------------|
     * *   * *   *   * * *     * *
e|---------------------------------|
B|---------------------------------|
G|---------------------------------|
D|-4-----3-----2-------------------|
A|---0-2---0-2---2-5-3-2-0-2~--0-4-|
E|---------------------------------|
     * *   * *   *   * * *     * *
e|---------------------------------|
B|---------------------------------|
G|---------------------------------|
D|-4-----3-----2-------------------|
A|---0-2---0-2---2-5-3-2-0-2~--0-3-|
E|---------------------------------|
     * *   * *   *   * * *     * *
e|---------------------------------|
B|---------------------------------|
G|---------------------------------|
D|-4-----3-----2-------------------|
A|---0-2---0-2---2-5-3-2-0-2~--0-2-|
E|---------------------------------|
     * *   * *   *   * * *     * *


Solo (Drover)
e|------------------------------------------------|
B|-12~--------15-13~--------17b19--17--15--12--13-|
G|------------------------------------------------|
D|------------------------------------------------|
A|------------------------------------------------|
E|------------------------------------------------|

e|------------14b16r14b16r14----|
B|-14~-----------------------14-|
G|------------------------------|
D|------------------------------|
A|------------------------------|
E|------------------------------|

e|-------------------------------------|
B|-13~--------15b17r15b17r15-12h15-12~-|
G|-------------------------------------|
D|-------------------------------------|
A|-------------------------------------|
E|-------------------------------------|

End Solo


Play Riff 1   "Let me wrap..."


Riff 2a           x3 
e|-----------------|-----------------|
B|-----------------|-----------------|
G|-----------------|-----------------|
D|-4--3--2-----0-2-|-4-4-------------|
A|-4--3--2--2--0-2-|-a-a--5--------7-|
E|----------2------|------3--------5-|
            *
   "...call..."


Play Riff 3   "When you feel..."


Riff 4 (Solo Rhythm)              x7
e|---------------------------------|
B|---------------------------------|
G|---------------------------------|
D|---------------------------------|
A|-------4-----------3---------3---|
E|-2-0-2---2-0-2-0-2---2-0-2-0---0-|
   * * *   * * * * *   * * * *
e|---------------------------------|
B|---------------------------------|
G|---------------------------------|
D|---------------------------------|
A|-------4-----------3---------3---|
E|-2-0-2---2-0-2-0-2---2-0-2-0---0-|

e|---------------|
B|---------------|
G|---------------|
D|-/4------------|
A|-/5----4----2--|
E|-------5----3--|


Solo (Drover)
e|---------------------------------------------|
B|---------------------------------------------|
G|----[start with 7.5 step dive, then release]-|
D|----[        to 1.5 steps over          ---]-|
A|-5-------------------------------------------|
E|-h.------------------------------------------|

e|----------------------|
B|----------------------|
G|-xx-4b5-4p2-2~--------|
D|------------------2/4-|
A|----------------------|
E|----------------------|

e|---------------------------------|
B|---------------------------------|
G|-6p4-----7p4-7p4-----6p4-6p4-----|
D|-----7p4---------7p4---------7p4-|
A|---------------------------------|
E|---------------------------------|

e|---------------------------------|
B|---------------------------------|
G|-7p4-----6p4-----6p4-----6p4---4-|
D|-----7p4-----7p4-----7p4-----7---|
A|---------------------------------|
E|---------------------------------|

e|------------------------------------------|
B|------------------------------------------|
G|-11p9------11p9-11p9----9-11p9-11p9-------|
D|------11p9-----------11-------------11-11-|
A|------------------------------------------|
E|------------------------------------------|

e|-----------------------------------------------------|
B|-----------------------------------------------------|
G|-14p11----11-14p11-------16p14-------16b17r16p14-16~-|
D|-------14----------14p11-------16p14-----------------|
A|-----------------------------------------------------|
E|-----------------------------------------------------|

End Solo

Solo (Mustaine)
e|-------------------------------------------------|
B|-------------------------------------------------|
G|-------------------------------------------------|
D|-------------------------------------------------|
A|-------------------------------------13h14p13----|
E|-12h14-14-14-14-14-15p14-14-14-14-14----------15-|

e|-------------------------------------------------|
B|-------------------------------------------------|
G|-------------------------------------------------|
D|-------------------------------------14h16p14----|
A|-14h16-16-16-16-16-17p16-16-16-16-16----------16-|
E|-------------------------------------------------|

e|-------------------------------------------------|
B|-------------------------------------------------|
G|-------------------------------------15h16p15----|
D|-14h16-16-16-16-16-17p16-16-16-16-17----------17-|
A|-------------------------------------------------|
E|-------------------------------------------------|

e|----------------------------------19-22-23-23\-|
B|----------------16-17-19-17-19-20--------------|
G|-15-16-18-16-18--------------------------------|
D|-----------------------------------------------|
A|-----------------------------------------------|
E|-----------------------------------------------|

e|-------------------------------------19-17-14-14-|
B|-19-19-19-19-17-14-19-19-19-19-17-14-------------|
G|-------------------------------------------------|
D|-------------------------------------------------|
A|-------------------------------------------------|
E|-------------------------------------------------|

e|-------------------------------------------------|
B|-19-19-19-19-17-14-19-19-19-19-17-14-------------|
G|-------------------------------------18-16-16-18-|
D|-------------------------------------------------|
A|-------------------------------------------------|
E|-------------------------------------------------|

e|-------------------------------------19-17-14-14-|
B|-19-19-19-19-17-14-19-19-19-19-17-14-------------|
G|-------------------------------------------------|
D|-------------------------------------------------|
A|-------------------------------------------------|
E|-------------------------------------------------|

e|-------------------------------------------------|
B|-19-19-19-19-17-14-19-19-19-19-17-14-19-19-17-14-|
G|-------------------------------------------------|
D|-------------------------------------------------|
A|-------------------------------------------------|
E|-------------------------------------------------|

e|-19-17p14---------------------|
B|----------17--19-17p14--------|
G|-----------------------16-14~-|
D|------------------------------|
A|------------------------------|
E|------------------------------|

End Solo


Riff 5
Guitar 1 (Clean)
e|---------------------------------|
B|-------------------------0-------|
G|-------0-----------0-------0-----|
D|-----4---4-------4---4-------4---|
A|---2-------2---3-------3-------3-|
E|-0-----------0-------------------|

e|-------------------------0-------|
B|---------------------------0-----|
G|-------0-----------0---------0---|
D|-----4---4-------4---4---------4-|
A|---2-------2---3-------3---------|
E|-0-----------0-------------------|


Guitar 2 (Distortion)
e|-----------------------------------------------|
B|-----------------------------------------------|
G|-/9~----12-11~--------------9---------9/12-11~-|
D|------------------9--10~-------12~-------------|
A|-----------------------------------------------|
E|-----------------------------------------------|

e|-----------------------------------------------------|
B|-----------------10/12-10~----12-13~----12--10-------|
G|-9~----11-12~----------------------------------12-11-|
D|-----------------------------------------------------|
A|-----------------------------------------------------|
E|-----------------------------------------------------|

e|----------------------------------------------|
B|----------------------------------------------|
G|-9~----12-11~--------------9---------9/12-11~-|
D|-----------------9--10~-------12~-------------|
A|----------------------------------------------|
E|----------------------------------------------|

e|----------------------------------------------------------|
B|-----------------10/12-10~----12-13~----12--10------------|
G|-9~----11-12~----------------------------------12-11--12~-|
D|----------------------------------------------------------|
A|----------------------------------------------------------|
E|----------------------------------------------------------|

Guitar 3 (Distortion)
e|---------------------------------------------------|
B|---------------------------------------------------|
G|-/12~----16-14~---------------12--11~----11/16-14~-|
D|-------------------12--14~-------------------------|
A|---------------------------------------------------|
E|---------------------------------------------------|

e|-----------------------------------------------------|
B|------------------13/15-13~----15-17~----15-13-------|
G|-12~----14-16~---------------------------------16-14-|
D|-----------------------------------------------------|
A|-----------------------------------------------------|
E|-----------------------------------------------------|

e|--------------------------------------------------|
B|--------------------------------------------------|
G|-12~----16-14~---------------12--11~----11/16-14~-|
D|------------------12--14~-------------------------|
A|--------------------------------------------------|
E|--------------------------------------------------|

e|----------------------------------------------------------|
B|------------------13/15-13~----15-17~----15-13--------16~-|
G|-12~----14-16~---------------------------------16-14------|
D|----------------------------------------------------------|
A|----------------------------------------------------------|
E|----------------------------------------------------------|

Guitar 4 (Comes in later, Distortion)
e|-----------19~----20-22-20~-|
B|-20~----22------------------|
G|----------------------------|
D|----------------------------|
A|----------------------------|
E|----------------------------|

e|-22--24~----22--20-19-----|
B|----------------------22~-|
G|--------------------------|
D|--------------------------|
A|--------------------------|
E|--------------------------|


Riff 6 (Solo Rhythm, Distortion)
e|----------------------------|
B|----------------------------|
G|----------------------------|
D|----------------------------|
A|-9------9------9------9--7--|
E|-7--777-7--777-7--777-7--5--|
      ***    ***    ***
e|-----------------------------|
B|-----------------------------|
G|-----------------------------|
D|-----------------------------|
A|-9------9------9------9--10\-|
E|-7--777-7--777-7--777-7---8\-|
      ***    ***    ***

Solo (Drover)
e|-14h15p14p12\11-12h14h15p14p12p11-12h14h15p14p12p11-|
B|----------------------------------------------------|
G|----------------------------------------------------|
D|----------------------------------------------------|
A|----------------------------------------------------|
E|----------------------------------------------------|

e|-12h14h15p14p12p11-12h14p12p11-------------------|
B|-------------------------------13-10h12h13p12p10-|
G|-------------------------------------------------|
D|-------------------------------------------------|
A|-------------------------------------------------|
E|-------------------------------------------------|

e|------------------------------------|
B|---------------10h12h13p12p10----10-|
G|-12p11p9h11h12----------------12----|
D|------------------------------------|
A|------------------------------------|
E|------------------------------------|

e|-----------------------------------|
B|-----------------------------------|
G|-12p11p9\-8h9h11p9p8---------------|
D|---------------------10-9-7--------|
A|----------------------------9-7-6~-|
E|-----------------------------------|

End Solo

Play Riff 3  4x

Riff 3a
Guitar 1
e|-------------------------------|
B|-------------------------------|
G|-------------------------------|
D|---------4---------------------|
A|-2~--0-2-----5------------5--4-|
E|-----------3-5-0--3~--2-3----2-|
       * *   *   *      * *
e|----------------------------------|
B|----------------------------------|
G|----------------------------------|
D|-------5h7------------------------|
A|-5h7---------5h7--9-8-----7h9-----|
E|-----0-----0----------9~------10\-|
       *     *
e|-------------------------------|
B|-------------------------------|
G|-------------------------------|
D|---------4---------------------|
A|-2~--0-2-----5------------5--4-|
E|-----------3-5-0--3~--2-3----2-|
       * *   *   *      * *
e|-------------------------------|
B|-------------------------------|
G|-------------------------------|
D|-------5h7---------------------|
A|-5h7---------5h7--9-8-----9----|
E|-----0-----0----------9~----10-|
       *     *
e|-------------------------------|
B|-------------------------------|
G|-------------------------------|
D|---------4---------------------|  ----|
A|-2~--0-2-----5------------5--4-|      |
E|-----------3-5-0--3~--2-3----2-|      |
       * *   *   *      * *             |--> Play 2x
e|----------------------------------|   |
B|----------------------------------|   |
G|----------------------------------|   |
D|-------5h7------------------------| --|
A|-5h7---------5h7--9-8-----7h9-----|
E|-----0-----0----------9~------10\-|
       *     *

Guitar 2
e|-------------------------------|
B|-------------------------------|
G|-------------------------------|
D|---------4---------------------|
A|-2~--0-2-----5------------5--4-|
E|-----------3-5-0--3~--2-3----2-|
       * *   *   *      * *
e|------------------------------------------|
B|------------------------------------------|
G|------------------------------------------|
D|--------9h10------------------------------|
A|-9h10----------9h10--12-11------10h12-----|
E|------0------0-------------13~--------14\-|
        *      *
e|-------------------------------|
B|-------------------------------|
G|-------------------------------|
D|---------4---------------------|
A|-2~--0-2-----5------------5--4-|
E|-----------3-5-0--3~--2-3----2-|
       * *   *   *      * *
e|--------------------------------------|
B|--------------------------------------|
G|--------------------------------------|
D|--------9h10--------------------------|
A|-9h10----------9h10--12-11------12----|
E|------0------0-------------13~-----14-|
        *      *
e|-------------------------------|
B|-------------------------------|
G|-------------------------------|
D|---------4---------------------| ---------------|
A|-2~--0-2-----5------------5--4-|                |
E|-----------3-5-0--3~--2-3----2-|                |
       * *   *   *      * *                       |
e|------------------------------------------|     |--> Play 2x
B|------------------------------------------|     |
G|------------------------------------------|     |
D|--------9h10------------------------------| ----|
A|-9h10----------9h10--12-11------10h12-----|
E|------0------0-------------13~--------14\-|
        *      *


Ending:
e|-----------------------|
B|-----------------------|
G|-----------------------|
D|---------------5----4\-|
A|-5--------2----3----2\-|
E|-3--------0------------|


Notation:

10^        = bend a quarter step.
10b11      = bend a half step.
10b12      = bend a full step.
10b12r10   = bend and release.
[10]12     = pre-bend.
[10]12r10  = pre-bend and release.
{14}       = pick the 14th fret while holding the most 
             previous bend.
<17>       = touch the string above the 17th fret while 
             previous note(s) is(are) still ringing.

10b13*     = tremolo bar bend, from the 10th fret to the 13th fret.
7d4*       = tremolo bar dive, from the 7th fret to the 4th fret. 
12~*       = tremolo bar vibrato.

x   =  mute with fret-hand
*   =  palm mute
X\\ =  pick slide
h   =  hammer-on
p   =  pull-off
~   =  vibrato
t   =  finger tap
/   =  slide up
\   =  slide down
h.  =  natural harmonics
a   =  artificial harmonics
(9) =  ghost note
tm  =  trem picking
tr  =  trill

            
            
Suggest correction
Creating personal tab
Creating personal tab
You can edit any tab online and save it as your Personal.

You can edit, replace or remove any tab part or add personal notes – all changes will be seen only by you.

Personal tabs can be accessed anytime from any device, even offline.
Learn more »
Give kudos to tab author, rate the tab!
1 2 3 4 5
comments
print report bad tab
guest
You may want to rate the tab now too:
select rating
Wanna post a correction for this tab? Suggest correction