Oops, an error
Loading. Please wait.

Peace Sells Bass Tab

version 2
version 2
10,384 views 3 this week
no commentswrite comment
1 2 3 4 5
x 9
add to favorites
launch autoscroll
font size
0
reset
guitar tuner
Autoscroll
slow
fast
+/-
esc
set tempo
stop
Help us to improve Ultimate-Guitar.com Take our survey!
×
Peace Sells by Megadeth.
   

   Intro.                                             (x4)

G|---------------------------------------------------------|
D|o------------5-----------7--8------------5--------------o|
A|o--7---5--7--------7--5--------7---5--7--------7--------o|
E|----------------0---------------------------0-----5--6---|

                                                                  (x4)
G|--------------------------------------------------------------------|
D|o------------------------------------------------------------------o|
A|o-----7---------------7---------------7---------------7------------o|
E|--0-0---0-0-0-0-4-0-0---0-0-0-0-3-0-0---0-0-0-0-4-0-0---0-0-0-6-5---|

G|-------------------------------------------------------------------------|
D|-----------5-------------------5-----------------------------------------|
A|-7-7-5-7-------5-7-R-7-7-5-7----------------------5-------------------3--|
E|---------0-------------------0----2-3-R-3-3-2-3-0----r-2-3-3-3--3-2-1----|

                                                                 (x5)
G|--------------------------------------------------------------------|
D|o------------------------------------------------------------------o|
A|o-----7---------------7---------------7---------------7------------o|
E|--0-0---0-0-0-0-4-0-0---0-0-0-0-3-0-0---0-0-0-0-4-0-0---0-0-0-6-5---|

G|-------------------------------------------------------------------------|
D|-----------5-------------------5-----------------------------------------|
A|-7-7-5-7-------5-7-R-7-7-5-7----------------------5-------------------3--|
E|---------0-------------------0----2-3-R-3-3-2-3-0----r-2-3-3-3--3-2-1----|

G|---------------------------------------------------------------------------|
D|o--------------------------------------------------------------------------|
A|o-------------7------------------------------------------------------------|
E|--0--0--0--0-----0--0--0--0--0--0--0--0--0--0--0--0--0--0--0--0--0--0--0--0|

G|-----------------------|
D|----------------------o|
A|----------------------o|
E|--0--0--0--0--0--2--3--|

G|---------------------------------------------------------------------------|
D|---------------------------------------------------------------------------|
A|--------------------------------------------------------10p9-10--------9p7-|
E|--2--2--2--2--2--2--2--3--3--3--3--2--2--2--2--2--0--0-----------0--0------|

G|---------------------------------------------------------------------------|
D|---------------------------------------------------------------------------|
A|9--------7p5-7-------------------------------------------------------------|
E|---0--0---------0--0--3--2--2--2--2--2--2--2--2--3--3--3--3--2--2--2--2--2-|

G|---------------------------------------------------------------------------|
D|---------------------------------------------------------------------------|
A|-------10p9-10-------9p7-9--------7p5-7------------------------------------|
E|-0--0----------0--0---------0--0---------0--0--2--3--2--2--2--2--2--2--2--3|

G|---------------------------------------------------------------------------|
D|---------------------------------------------------------------------------|
A|--------------------------------10p9-10--------9p7-9--------7p5-7----------|
E|--3--3--3--2--2--2--2--2--0--0-----------0--0---------0--0---------0--0--2-|

G|-----------------------------------------------------------------------|
D|-----------------------------------------------------------------------|
A|----------------------------------------------5--6-----------------R---|
E|-3--2--2--2--2--2--2--2--3--3--3--3--2--2--2--------0------------------|

G|---------------------------------------------------------------------------|
D|---------------------------------------------------------------------------|
A|--7--5-7-----7--5--7--7--5-7-----7--5--7--7--5-7-----7--5--7--7--5-7-----7-|
E|----------0-------------------0-------------------0-------------------0----|

G|---------------------------------------------------------------------------|
D|---------------------------------------------------------------------------|
A|-5--7--7--5-7-----7--5--7--7--5-7----7--5--7--7--5-7-----7--5--7--7--5-7---|
E|---------------0-------------------0------------------0-------------------0|
                               
G|-9-9-9-9-9p7--|
D|--------------|
A|--------------|
E|--------------|

G|------------------------------------------------------------------|
D|o----------------------------------------------------------------o|
A|o-----------------------------------------2---2--3--2--2--2--2---o|
E|---0--0--0-0-0--3--3--3-3-3--2--2--2-2-2--------------(3)(3)(3)---| notes in parens second time
                         
G|---------------------------------------------------------------------------|
D|---------------------------------------------------------------------------|
A|-------------------------------------------2--2-2-2-2-2--------------------|
E|--0--0--0-0-0--3--3--3-3-3--2--2--2-2-2-2----------------0--0--0-0-0--3--3-|

G|---------------------------------------------------------------------------|
D|--------------------------------4--4---------------------------------------|
A|-----------------------2--2--2------------7--------------------------------|
E|-3-3-3--2--2--2-2-2-2------------------0-----0--0--0--3--3--3-3-3-3--2--2--|

G|---------------------------------------------------------------------------|
D|---------------------------------------------------------------------------|
A|-------2-2-2-2-2-2-2-2--------------------------------------------2-2-2--2-|
E|2-2-2-------------------0--0--0--0--3--3--3-3-3-3--2--2--2-2-2-2-----------|

G|-------------------------------------------------------------------|
D|-------------------------------------------------------------------|
A|3-2----------------------------------------------2-2-2---2-2-2-2---|
E|----3--0--0--0--0--3--3--3-3-3-3--2--2--2-2-2-2--------------------|

                                1.,2.
                               |--------------------------------|
G|--------------------------------------------------------------|
D|o------------------------------------------------------------o|
A|o--------------------------------------------2-2-2--2-3-2----o|
E|---0--0--0--0--3--3--3-3-3-3--2--2--2-2-2-2---------------3---|

   3.
  |------------
G|---------------------------------------------------------------------------|
D|---------------------------------------------------------------------------|
A|---------------2--2-2-2-2--------------------------------------------------|
E|--2--2--2-2-2-------------3--2-1-0-1-2-1-0-2-3-3-3-3-2-2-3-2-0--0--0--0--0-|

G|---------------------------------------------------------------------------|
D|---------------------------------------------------------------------------|
A|---------------------------------------------------------------------------|
E|-0--0--0-3-2-1-0-1-2-1-0-2-3-3-3-3-2-2-3-2-0--0--0--0--0--0--0--0-3-2-1-0-1|

G|---------------------------------------------------------------------------|
D|---------------------------------------------------------------------------|
A|-----------------------------------0-2-------------------------------------|
E|-2-1-0-2-3-3-3-3-2-2-3-2--0--0--0-------0--0--0--4-3-2-1-0-1-2-1-0-2-3-3-3-|
           
G|-----------|
D|-----------|
A|-----------|
E|3-2-2-3-2-0|



+----------------------------------------+---------------------------------+ 
|  ____    ____                          |         acanterb@vt.edu         |
| (    `--'  .-'               _T_T_T_T_ |  ___                 __         |
| |8| O  O  |||||||||||||||||||[o o o o/ | /   \  |   | |\  /| |  | \   /  |
| (__,--.____\                 `~~~`--'  | |  ___ |   | | \/ | |--+. \ /   |
|                                        | \____| |___| |    | |___|  |    |
|    Bassist for Division by Zero        |                                 |
|                                                                          |
|   Check out the Web Page! http://sfbox.vt.edu:10021/R/rconnell/band.html |
|                                                                          |
+----------------------------------------+---------------------------------+







Suggest correction
comments
print report bad tab
guest
You may want to rate the tab now too:
select rating
Wanna post a correction for this tab? Suggest correction