Oops, an error
Loading. Please wait.

Peace Sells Bass Tab

version 3
version 3
8,738 views 6 this week
2 commentsread comments
1 2 3 4 5
not so good
x 13
add to favorites
launch autoscroll
font size
0
reset
guitar tuner
Tab Pro tools
  • play this tab
  • loop segment
  • change instrument
  • show fretboard
  • metronome
×
Best way to learn
"Peace Sells"
Autoscroll
slow
fast
+/-
esc
set tempo
stop
Contributor
Difficulty
novice
-------------------------------------------------------------------------------
                            PEACE SELLS-MEGADETH
-------------------------------------------------------------------------------

Tabbed By : demigod_92
e-mail:koruptor69@yahoo.com 


intro
G|---------------------------------------------------------------------------|
D|---------3----------------3-5h3--------------------------------------------|
A|--5-3h5----5-5-3----5-3h5-------5-3----------------------------------------|
E|-----------------5---------------------------------------------------------|

G|---------------------------------------------------------------------------|
D|---------------------------------------------------------------------------|
A|---------------------------------------------------------------------------|
E|-0-0-0-0-0-0-0-4--0-0-0-0-0-0-0-3--0-0-0-0-0-0-0-4--0-0-0-0-0-0-6-5--------|

G|---------------|----------------|
D|---------3-----|----------------|
A|-5-5-3-5---3-5-|----------3-----|
E|---------------|--3-3-2-3---2-3-|

G|---------------------------------------------------------------------------|
D|-----5p4h5-----4p2h4------2p0h2--------------------------------------------|
A|---------------------------------------------------------------------------|
E|-0-0-------0-0-------0-0--------0-0-3-2------------------------------------|

G|---------------------------------------------------------------------------|
D|---------------------------------------------------------------------------|
A|---------------------------------------------------2-2-2-2-2-2-2-2---------|
E|-0-0-0-0-0-0-0-0-0-3-3-3-3-3-3-3-3-2-2-2-2-2-2-2-2-------------------------|


| /  slide up
| \  slide down
| h  hammer-on
| p  pull-off
| ~  vibrato
| +  harmonic
| x  Mute note
===================================================================
comments
print report bad tab
2 comments total.
+4 reply
shredfreak93 wrote on June 8 2010, 09:29 pm

dude, wrong key, bad tab. take it off, or your gonna mislead some ppl

0 reply
TheBassist10 wrote on July 10 2014, 11:12 am

Clearly wrong.

I want to post or [tab]
guest
You may want to rate the tab now too:
select rating
Please do not post tabs as comments. Select "correction" instead!