Oops, an error
Loading. Please wait.

Peace Sells Tab

version 5
version 5
21,033 views 12 this week
no commentswrite comment
1 2 3 4 5
accurate
x 7
add to favorites
launch autoscroll
font size
0
reset
how to read this tab
guitar tuner
Autoscroll
slow
fast
+/-
esc
set tempo
stop
Help us to improve Ultimate-Guitar.com Take our survey!
×
Author
Difficulty
advanced
        Peace Sells
         Megadeth

Slide in  /
Slide out \                              
Palm Mute *
Bend      b
Release   r
Hammer On h
Pull off  p
Vibrato   ~

Bass and drum intro (0:00-0:06)

e|----------------|----------------|
B|----------------|----------------|
G|----------------|----------------|
D|----------------|-------9\-------|
A|----------------|-------7\--2----|
E|----------------|--0-0------0----|
                     * *
Riff 1
e|---------------------------------------|
B|---------------------------------------|
G|---------------------------------------|
D|-7-------------------------------------|
A|-5----------------------------------8-7|
E|--------0-0-0-0-0-0-0-0-0-0-0-0-0-0-6-5|
          * * * * * * * * * * * * * *

Solo to be played over Riff 1
e|-16b18r16-16b18r16-16b18r16-|
B|----------------------------|
G|----------------------------|
D|----------------------------|
A|----------------------------|
E|----------------------------|

e|-12h15p12--12-10h13p10--10-9h11p9--9-7h9p7-7|
B|---------15-----------13---------11-------9-|
G|--------------------------------------------|
D|--------------------------------------------|
A|--------------------------------------------|
E|--------------------------------------------|

e|-5h7p5-5-3h5p3-3-2h4p2-2-1h3p1-1-0----------|
B|------7-------5-------4-------3-------------|
G|--------------------------------------------|
D|--------------------------------------------|
A|--------------------------------------------|
E|--------------------------------------------|

Beggining of riff 2
e|--------------------------------|
B|--------------------------------|
G|--------------------------------|
D|--------------------------------|
A|---------------6---------------5|
E|-0-0-0-0-0-0-0-4-0-0-0-0-0-0-0-3|
   * * * * * * *   * * * * * * *
What do ya mean I don't believe in god...

                      End of riff 2
e|--------------------------------|
B|--------------------------------|
G|--------------------------------|
D|--------------------------------|
A|---------------6-------------8-7|
E|-0-0-0-0-0-0-0-4-0-0-0-0-0-0-6-5|
   * * * * * * *   * * * * * *
Talk to him everyday...

e|--------------------------------|
B|--------------------------------|
G|--------------------------------|
D|--------------------------------|
A|---------------6---------------5|
E|-0-0-0-0-0-0-0-4-0-0-0-0-0-0-0-3|
   * * * * * * *   * * * * * * *
What do ya mean I don't support your system...

e|--------------------------------|
B|--------------------------------|
G|--------------------------------|
D|--------------------------------|
A|---------------6-------------8-7|
E|-0-0-0-0-0-0-0-4-0-0-0-0-0-0-6-5|
   * * * * * * *   * * * * * *
I go to court when I have to...

e|--------------------------------|
B|--------------------------------|
G|--------------------------------|
D|--------------------------------|
A|---------------6---------------5|
E|-0-0-0-0-0-0-0-4-0-0-0-0-0-0-0-3|
   * * * * * * *   * * * * * * *
What do ya mean I can't get to work on time...

e|--------------------------------|
B|--------------------------------|
G|--------------------------------|
D|--------------------------------|
A|---------------6-------------8-7|
E|-0-0-0-0-0-0-0-4-0-0-0-0-0-0-6-5|
   * * * * * * *   * * * * * *
Got nothin' better to do...

e|--------------------------------|
B|--------------------------------|
G|--------------------------------|
D|--------------------------------|
A|---------------6---------------5|
E|-0-0-0-0-0-0-0-4-0-0-0-0-0-0-0-3|
   * * * * * * *   * * * * * * *
What do ya mean I don't pay my bills...

e|--------------------------------|
B|--------------------------------|
G|--------------------------------|
D|--------------------------------|
A|---------------6-------------8-7|
E|-0-0-0-0-0-0-0-4-0-0-0-0-0-0-6-5|
   * * * * * * *   * * * * * *
What do ya think I'm broke...  

e|--------------------------------------|
B|--------------------------------------|
G|---------7----------------------------|
D|-9-9-7-9-5-7-9------------------------|
A|-7-7-5-7---5-7------------------------|
E|--------------------------------------|
                 If there's a new way...

e|--------------------------------------|
B|--------------------------------------|
G|---------7----------------------------|
D|-9-9-7-9-5----------------------------|
A|-7-7-5-7---4-5------------------------|
E|-----------2-3------------------------|
                 I'll be the first in line...

e|------------------------------------|
B|------------------------------------|
G|------------------------------------|
D|---------7------------------------5-|
A|-5-5-4-5-5-4-5--------------5-4-3-3-|
E|-3-3-2-3---2-3--------------3-2-1---|
                              * * *
                But it better work this time.

Solo to be played over riff 2
e|-------------------------------------------------------------|
B|---------------------------12h13-12p11p10p9--------9h12p10---|
G|-14~~-13p12h13p12--12h13h14----------------10-9h10--------10-|
D|-----------------14------------------------------------------|
A|-------------------------------------------------------------|
E|-------------------------------------------------------------|

e|--------------------------------------------12---------------|
B|---10p9------9-------------------------15~~---15-12----------|
G|-9------10p9---10p9--------------------------------14-12b13\-|
D|--------------------10p9p7---7p6-----------------------------|
A|---------------------------8-----8p7-------------------------|
E|-------------------------------------------------------------|

Play riff 2 with solo's over top

e|---------------------------------|
B|---------------------------------|
G|---------------------------------|
D|---------------------------------|
A|---------------6---------------5-|
E|-0-0-0-0-0-0-0-4-0-0-0-0-0-0-0-3-|
   * * * * * * *   * * * * * * *
What do ya mean I hurt your feelings...

e|-----------------------------------------------|
B|-----------------------------------------------|
G|-----------------------------------------------|
D|-----------------------------------------------|
A|---------------6-5p3-6p3-5p3-0\-(tremolo dive)-|
E|-0-0-0-0-0-0-0-4-------------------------------|
   * * * * * * *
I didn't know ya had any feelings...

e|---------------------------------|
B|---------------------------------|
G|---------------------------------|
D|---------------------------------|
A|---------------6---------------5-|
E|-0-0-0-0-0-0-0-4-0-0-0-0-0-0-0-3-|
   * * * * * * *   * * * * * * *
What do ya mean I aint kind...

e|-----------------------18-------18~~-|
B|-----------------17b19----17b19------|
G|-------------------------------------|
D|-------------------------------------|
A|---------------6---------------------|
E|-0-0-0-0-0-0-0-4---------------------|
   * * * * * * *
Just not your kind...

e|---------------------------------|
B|---------------------------------|
G|---------------------------------|
D|---------------------------------|
A|---------------6---------------5-|
E|-0-0-0-0-0-0-0-4-0-0-0-0-0-0-0-3-|
   * * * * * * *   * * * * * * *
What do ya mean I couldn't be the president...

e|-------------------------------------------|
B|-----------------14h15------12-13b15~~~~~\-|
G|-------------------------12----------------|
D|----------------------14-------------------|
A|---------------6---------------------------|
E|-0-0-0-0-0-0-0-4---------------------------|
   * * * * * * *
Of the united states of america...

e|---------------------------------|
B|---------------------------------|
G|---------------------------------|
D|---------------------------------|
A|---------------6---------------5-|
E|-0-0-0-0-0-0-0-4-0-0-0-0-0-0-0-3-|
   * * * * * * *   * * * * * * *
Tell me something it's still...

e|----------------------------------------------|
B|-15-------------------------------------------|
G|-14b15--14p12--15-14p12-----------------------|
D|-------------14--------14-12------------------|
A|-----------------------------14-12-10-12-10~~-|
E|----------------------------------------------|

We, the people right.

e|--------------------------------------|
B|--------------------------------------|
G|---------7----------------------------|
D|-9-9-7-9-5-7-9------------------------|
A|-7-7-5-7---5-7------------------------|
E|--------------------------------------|
                 If there's a new way...

e|--------------------------------------|
B|--------------------------------------|
G|---------7----------------------------|
D|-9-9-7-9-5----------------------------|
A|-7-7-5-7---4-5------------------------|
E|-----------2-3------------------------|
                 I'll be the first in line...

e|------------------------------------|
B|------------------------------------|
G|------------------------------------|
D|---------7------------------------5-|
A|-5-5-4-5-5-4-5--------------5-4-3-3-|
E|-3-3-2-3---2-3--------------3-2-1---|
                              * * *
                But it better work this time.

Both guitars play this the first time:(int.1)
e|-----------------------------------------|
B|-----------------------------------------|
G|-----------------------------------------|
D|-----5p4h5-----4p2h4-----2p0h2-----------|
A|-----------------------------------5p4h5-|
E|-0-0-------0-0-------0-0-------0-0-------|
   * *       * *       * *       * * 
e|-----------------------------------------|
B|-----------------------------------------|
G|-----------------------------------------|
D|-----------------------------------------|
A|-----4p2h4-----2p0h2---------------------|
E|-0-0-------0-0-------0-0-5p3h5-0-0-3p2h3-|
   * *       * *       * *       * *

The second time guitar 1 plays riff above and guitar 2 plays:(int.2)
e|-----------------------------------------|
B|-----------------------------------------|
G|-----4p2h4-----2p0h2---------------------|
D|------------------------5p4h5-----4p2h4--|
A|-----------------------------------------|
E|-0-0-------0-0------0-0-------0-0--------|
   * *       * *      * *       * * 

Rhythm during solos (then go back to int 1 & 2 in between each solo)
e|---------------------------------| 
B|---------------------------------|
G|---------------------------------|
D|---------------------------------|
A|-4-------------5-------4-----5-4-|
E|-2-2-2-2-2-2-2-3-3-3-3-2-2-2-3-2-|
     * * * * * *   * * *   * * 

solo I
e|----10------------------------------------------|
B|-12----12-12-10-----------8-10-12-8-------------|
G|----------------12---10-------------9-7---------|
D|-------------------9----9---------------9-7-5b7-|
A|------------------------------------------------|
E|------------------------------------------------|

Solo II
e|----------------------------------------|
B|----------------------------------------|
G|-------------------------5\4p2h4p2------|
D|-----------------2---4p2-----------4-2~-|
A|-----2h4-2h4-2h4---4--------------------|
E|-2-2------------------------------------|

Solo III
e|-14-15-19-14-15-19-15-15-16-16-15b17-16b18-17b19-|
B|-------------------------------------------------|
G|-------------------------------------------------|
D|-------------------------------------------------|
A|-------------------------------------------------|
E|-------------------------------------------------|

e|----15-------------------------------------|
B|-17----14-15b17~~--15b17~~--15-------------|
G|-------------------------------16-14-12~~~-|
D|-------------------------------------------|
A|-------------------------------------------|
E|-------------------------------------------|

Solo IV
e|-------------19----------------19----------------|
B|-19h22p19h22----22p19h22p19h22----22p19h22p19h22-|
G|-------------------------------------------------|
D|-------------------------------------------------|
A|-------------------------------------------------|
E|-------------------------------------------------|

e|-19----------------19--------------------------------|
B|----22p19h22p19h22----22p19h22p19--------------------|
G|----------------------------------22-19h22-18h20-16~-|
D|-----------------------------------------------------|
A|-----------------------------------------------------|
E|-----------------------------------------------------|

Can you put a price on peace?

Riff 3a 12x
e|-------------------|
B|-------------------|
G|-------------------|
D|-------5-----------|
A|-7-5-7---0-7-5-0-0-|
E|-------------------|
           *     * *
After 4th repeat of Riff 3a

Riff 3b 2x
e|----------------------------------|
B|----------------------------------|
G|----------------------------------|
D|-9----xx-12----xx-11---xx------xx-|
A|-7----xx-10----xx-9----xx-9----xx-|
E|-0----xx-10----xx-9----xx-7----xx-|

Riff 4 8x
e|--------------------|
B|--------------------|
G|--------------------|
D|--------5-------7/8-|
A|-7~-5-7---0-7-5-----|
E|--------------------|
            *   
Peace...peace sells...

Riff 5a 8x
e|--------------------|
B|--------------------|
G|--------------------|
D|--------5-------7/8-|
A|-7~-5-7---0-7-5-----|
E|--------------------|

Riff 5b 8x
e|---------------------|
B|---------------------|
G|--------7-------9/10-|
D|-9~-7-9---0-9-7------|
A|---------------------|
E|---------------------|
            *
Peace sells...but who's buying?

Rhythm plays Riff 4, lead plays:
e|-----------------------12-------------12----------------|
B|-8b10-10b12-12b14-15b17----15p12----12----15p12---------|
G|--------------------------------15-------------15-14-12-|
D|--------------------------------------------------------|
A|--------------------------------------------------------|
E|--------------------------------------------------------|

e|-15b17-15b17-15b17-15b17~-12---12h13p12--------12h13p12----------|
B|-----------------------------15--------15p12h15---------15p12h15-|
G|-----------------------------------------------------------------|
D|-----------------------------------------------------------------|
A|-----------------------------------------------------------------|
E|-----------------------------------------------------------------|

e|-12h13p12----------------------------12-15b17-17b19-20b22-22b24-|
B|----------15p13p12----------12h13h15----------------------------|
G|-------------------14p12h14-------------------------------------|
D|----------------------------------------------------------------|
A|----------------------------------------------------------------|
E|----------------------------------------------------------------|

e|-22p19h22p19--------------------------|
B|-------------22-20b22-20b22-20b22-20~-|
G|--------------------------------------|
D|--------------------------------------|
A|--------------------------------------|
E|--------------------------------------|

Riff 5b 
e|---------------------|
B|---------------------|
G|--------7-------9/10-|
D|-9~-7-9---0-9-7------|
A|---------------------|
E|---------------------|
            *
Peace sells...but who's buying?

e|---------------------------------------------|
B|---------------------------------------------|
G|---------------------------------------------|
D|---------------------12-12-12-12-11-11-12-11-|
A|-6-5-4-3-2-3-4-3-2-3-10-10-10-10-9--9--10-9--|
E|-4-3-2-1-0-1-2-1-0-1-------------------------|
   * * * * * * * * * *
   No....no no no no....

e|---------------------------------------------------------------|
B|------------------------------------------------------12h14h15-|
G|---------------------------------------------11h12h14----------|
D|-------------------9h11h12p11h12----11h12h14-------------------|
A|-7h9h10p7-7h9h10p7---------------14----------------------------|
E|---------------------------------------------------------------|

e|---------------------------------12h15-17p15h17----------------|
B|-12b15r12-10--10---12----9-12h14---------------------15-17b19--|
G|------------12------------------------------------16-----------|
D|---------------------------------------------------------------|
A|---------------------------------------------------------------|
E|---------------------------------------------------------------|

e|----------------------------------------------------|
B|-17-17p15-17p15----17p15----17p15----17p15-17p15----|
G|----------------16-------16-------16-------------16-|
D|----------------------------------------------------|
A|----------------------------------------------------|
E|----------------------------------------------------|

e|-------------------------------------------------------19-22b24~-|
B|-15h17-20p17-20p17--17h20p17-17-20b22-20b22-20b22-20b22----------|
G|------------------19---------------------------------------------|
D|-----------------------------------------------------------------|
A|-----------------------------------------------------------------|
E|-----------------------------------------------------------------|
Suggest correction
comments
print report bad tab
guest
You may want to rate the tab now too:
select rating
Please do not post tabs as comments. Select "correction" instead!